Oops, an error
Loading. Please wait.

El Ultimo Viaje chords

21 views 1 this week
no commentswrite comment
1 2 3 4 5
3 more votes to show rating
add to favorites
×
Save as Personal and add changes to this tab that will be seen only by you. Learn more ›
×
You can save this tab as Personal to edit and correct it or add notes. All changes will be seen only by you. Learn more »
launch autoscroll
font size
0
reset
transpose
0
reset
simplify chords
display chords
guitar tuner
edit
Autoscroll
slow
fast
+/-
esc
set tempo
stop
Strumming
There is no strumming pattern for this song yet. and get +5 IQ
E|---------------------------------------------------------------------------
B|-6-6-6-6-8-6---------------------------------------------------------------
G|-------------5--2-3--3-3-3-5-3-2---------------------------------3---------
D|---------------------------------3--3-3-5-3--------------------------5-----
A|--------------------------------------------6-5-3--3-3-5-3---------5---5---
E|-----------------------------------------------------------6-5-3---------3-


  G5                        A#5         D5
Rebelde entre rebeldes y sobrao de corazón
   G5                              A#5              D5
Da todo a cambio de nada siempre expuesto a la traición
A#5                  F5                    G5
Decían que era un bandido pero yo creo que no,
                    D5                       D#5
Por traer un mundo nuevo es viento de revolución.

     G5                      A#5        D5
Unas hojas han llovido hablando de libertad,
     G5                            A#5          D5
Predicando con los hechos donde el limite es hablar,
A#5                 F5                     G5
Donde la fuerza del palo silenció la humanidad,
                      D5                     D#5
Las espadas contra el muro luchando sin solución.

A#5  A#5/A         G5                    C5
Es la voz de la verdad, que no pueden callar
                  F5                             A#5
La voz de los sin tierra esta de vuelta en la cuidad!
  A#5/A           G5                    C5
El Quico que esta vez, cogió el último tren
               F5                     D#5 F#5 F5
Una lluvia de plomo le espera al amanecer!

INTRO

IGUAL A LOS PRIMEROS VERSOS:
Le buscaban vivo o muerto, nunca pediría perdón
El pasado se derrumba y el futuro se esfumó?
A veces le susurra el viento que su suerte se acabó
Por luchar contra el olvido hoy yo canto esta canción!

ESTRIBILLO

E|---------------------------------------------3-
B|-6-6-6-5-5-3-5-3-5-6-----6-6-6-5-5-3-5-3-5-6---
G|---------------------3------------------------
D|------------------------------------------------
A|------------------------------------------------
E|------------------------------------------------

E|----------------------------------------------------------------------
B|----------------------------------------------------------------------
G|----------------------------------------------------------------------
D|--------------------------------------------------------------(7)-(8)-
A|--6-6-8-6-6-6-8--1-1-3-1-1-1-3--6-6-8-6-6-6-8--1-1-3-1-1-1-3--(5)-(6)-
E|-(8)-------------(3)------------(8)------------(3)---------------------


ACLARACIÓN: Se toca con 2 guitarras el solo,
el pedacito que pongo a continuación
se toca SOBRE la parte que puse arriba, con una sola guitarra queda mejor hacer
sólo el de arriba.

E|----------------------------------------------------------------------
B|---------------------------------------------------------------------
G|----------------------------------------------------------------------
D|----------------------------------------------------------------------
A|-(6)----------------------------(6)--------6/8-(5)-------------(5)-(6)-
E|------------------(3)---------------------------------------------------

Ahora sigo escribiendo el solo como sigue, con la guitarra principal.

E|----------------------------------------
B|---------------------------------------
G|----------------------------------------
D|-8-8-10-8-10---------------8-8-10-8-10---------------8-8-10-8-10-
A|-6-6--8-6--8--8-8-10-8-10--6-6--8-6--8--8-8-10-8-10--6-6--8-6-8--  F5  D#5
E|--------------6-6--8-6--8---------------6-6--8-6--8--------------

ESTRIBILLO

FINAL: C#5 C5 F5

Notas:
A#5/A = 5 8 8 x x x
Nota entre ( ) = Dejar sonar
6/7 = deslizar

Eso es todo, dudas sobre este o cualquier tema que subí erikabuira@

            
            
Suggest correction
Creating personal tab
Creating personal tab
You can edit any tab online and save it as your Personal.

You can edit, replace or remove any tab part or add personal notes – all changes will be seen only by you.

Personal tabs can be accessed anytime from any device, even offline.
Learn more »
Give kudos to tab author, rate the tab!
1 2 3 4 5
comments
print report bad tab
guest
Wanna post a correction for this tab? Suggest correction