Oops, an error
Loading. Please wait.

Sin Arreglo tab

42 views 1 this week
no commentswrite comment
1 2 3 4 5
3 more votes to show rating
add to favorites
×
Save as Personal and add changes to this tab that will be seen only by you. Learn more ›
×
You can save this tab as Personal to edit and correct it or add notes. All changes will be seen only by you. Learn more »
launch autoscroll
font size
0
reset
how to read this tab
guitar tuner
edit
Autoscroll
slow
fast
+/-
esc
set tempo
stop
A#5              F5
SERES FRIOS CONDENADOS
D5              D#5
OBLIGAOS A OBEDECER
  A#5             F5
EN UN MUNDO MANIPULADO
    G#5
QUE PUEDES PERDER!

Punteo sobre A#5 F5 C5 D#5
E|--------------------------------------------------|
B|---3-5-3---------3--------3-5-3---------3---------|
G|-3-------5-3-5-5---5-3--3-------5-3-5-5---5-3-2-3-|
D|--------------------------------------------------|
A|--------------------------------------------------|
E|--------------------------------------------------|

(1)
A#5               A5
EL AMO IMPONE SUS LEYES
G5                  F5
SOLO NOS QUEDA AGUANTAR
D#5                 D5
NUNCA SE EXIGE A SI MISMO
        F5
LO QUE EXIGE A LOS DEMAS!

(Igual que 1)
INFORMADORES ALQUILADOS
DICEN LO QUE HAY QUE DECIR
EN UN MUNDO DE MENTIRA
LA VERDAD DEBE MORIR!!

(2)
A#5         F5            G5          D#5
Y AUNQUE ME BASTE UNA CANCION PARA SENTIRME LIBRE
A#5      F5           G#5
NO VOY A DESCANSAR EN PAZ!
A#5         F5             G5              D#5
Y AUNQUE SE QUE NADA ES VERDAD, Y QUE ESTO NO ES UN JUEGO
A#5         F5           G#5
NO BAILO AL RITMO QUE ME DAN.

(Punteo)

(Igual que 1)
EL MUNDO VIVE ASUSTADO,
AMENAZAN CON LA PAZ
MANTEN A TU ENEMIGO ARMADO
QUE EL SOLO SE MATARA!

(Igual que 1)
MI ABUELO QUE ERA UN POETA
ME DECIA OYE CHAVAL,
DE TODA ESTA PUTA GENTE NADA BUENO HAS DE ESPERAR!!!

(Igual que 2)
Y AUNQUE ME BASTE UNA CANCION
PARA SENTIRME LIBRE, NO VOY A DESCANSAR EN PAZ!
Y AUNQUE SE QUE NADA ES VERDAD, Y QUE ESTO NO ES UN JUEGO
NO BAILO AL RITMO QUE ME DAN

Sobre A#5 D#5
E|--------------------------------------6-----------
B|---6---3-4-4-----3------6---3-4-4-----------------
G|-3---3-------5-5---5--3---3-------5-5-------------
D|--------------------------------------------------
A|--------------------------------------------------
E|--------------------------------------------------

E|------------------------------------------3-------|
B|---5---3-4-4-----3------6---3-4-----3-4-6---6-(6)-|
G|-3---3-------5-5---5--3---3-----3-5---------------|
D|--------------------------------------------------|
A|--------------------------------------------------|
E|--------------------------------------------------|


(Igual que 2)
Y AUNQUE ME BASTE UNA CANCION
PARA SENTIRME LIBRE, NO VOY A DESCANSAR EN PAZ!
Y AUNQUE SE QUE NADA ES VERDAD, Y QUE ESTO NO ES UN JUEGO
NO BAILO AL RITMO QUE ME DAN

Sobre A#5 F5 C5 D#5
E|---------------------------------------------------------
B|-----------------------------4-4-3-3-4-5-5-4-4-3-3-4-6-3-
G|-3-3-----3-----------------------------------------------
D|-----7-7---7-3--3-3-5-5-3--------------------------------
A|--------------------------6------------------------------
E|---------------------------------------------------------

E|-----------------------------------------------|
B|-----------------------------------------------|
G|-3-3-----3-------------------------------------|
D|-----7-7---7-3--3-3-5-5-3--------------3-3-(3)-|
A|--------------------------6--6-6-5-5-6---------|
E|-----------------------------------------------|

A#5 F5 C5 D#5
Oooh...

E|-----------------------------------------------
B|-----3-3/6-6-3/6-3--------3-3/6-8-6-8----------
G|-3-5---------------5--3-5----------------------
D|-----------------------------------------------
A|-----------------------------------------------
E|-----------------------------------------------

E|-----------------------------------------------|
B|-----3-3/6-6-3/6-3---------------------3-------|
G|-3-5---------------5-5-3-5-5-3-5-5-3-5---5-3---|
D|-----------------------------------------------|
A|-----------------------------------------------|
E|-----------------------------------------------|


E|--------------------------------------------------|
B|---3-5-3---------3--------3-5-3---------3---------|
G|-3-------5-3-5-5---5-3--3-------5-3-5-5---5-3-2-3-|
D|--------------------------------------------------|
A|--------------------------------------------------|
E|--------------------------------------------------|

E|-----3------------------------3-------------------|
B|-3-6---6-4-3-4-6-4-3---3--3-6---6-4-3-4-6-4-3-----|
G|---------------------5----------------------------|
D|--------------------------------------------------|
A|--------------------------------------------------|
E|--------------------------------------------------|

            
            
Suggest correction
Creating personal tab
Creating personal tab
You can edit any tab online and save it as your Personal.

You can edit, replace or remove any tab part or add personal notes – all changes will be seen only by you.

Personal tabs can be accessed anytime from any device, even offline.
Learn more »
Give kudos to tab author, rate the tab!
1 2 3 4 5
comments
print report bad tab
guest
Wanna post a correction for this tab? Suggest correction