Oops, an error
Loading. Please wait.

Entre Las Sombras tab

15 views 1 this week
no commentswrite comment
1 2 3 4 5
3 more votes to show rating
add to favorites
×
Save as Personal and add changes to this tab that will be seen only by you. Learn more ›
×
You can save this tab as Personal to edit and correct it or add notes. All changes will be seen only by you. Learn more »
launch autoscroll
font size
0
reset
how to read this tab
guitar tuner
edit
Autoscroll
slow
fast
+/-
esc
set tempo
stop
Intro:

       Dm                 Am              G

1)------1------------------0---------------------3----3--3--
2)--------3------------------1-----------------3-----3--3---
3)----2------------------2-------------------0-----0-------- (x2)
4)--0------------------2-------------------0----------------
5)---------------------------------------2------------------
6)-------------------------------------3--------------------

 Dm      Am      Dm        Am
Tu oscuridad en este camino,
 Dm       Am           Dm        Am
Ando de a ratos coincidiendo conmigo,
 Dm       Am              Dm      Am
sé que entre las sombras vos estás,
 Dm     Am         Dm   Am
siento voráz ese aliento.

     G                      Am

1)---3----------------------0----------------
2)---3----------------------1--1-----1-------
3)---0----------------------2----2-----2-p-0-
4)---0----------------------2------2---------
5)---2----------------------0----------------
6)---3----------------------x----------------

  G                   Am
Siempre por viento a soplar,
  G                   Am
siempre quebrando el silencio,
  G                   Am
andás detrás de esta sangre,
  G                   Am
esa que muere este tiempo.


Dm                 Am              G

1)------1------------------0---------------------3----3--3--
2)--------3------------------1-----------------3-----3--3---
3)----2------------------2-------------------0-----0--------
4)--0------------------2-------------------0----------------
5)---------------------------------------2------------------
6)-------------------------------------3--------------------


 Dm          Am           Dm    Am
Siempre por mundos tan distantes
 Dm     Am           Dm    Am
yo viviré hoy en tu reino.


    G                      Am

1)---3----------------------0----------------
2)---3----------------------1--1-----1-------
3)---0----------------------2----2-----2-p-0-
4)---0----------------------2------2---------
5)---2----------------------0----------------
6)---3----------------------x----------------


 G                    Am
soy como nubes que amenazan
 G                Am
Y sólo quedan en viento
 G                     Am
soy la mentira que hoy dentro.

 SILENCIO

Va recorriendo mi cuerpo.


Dm                 Am              G

1)------1------------------0---------------------3----3--3--
2)--------3------------------1-----------------3-----3--3---
3)----2------------------2-------------------0-----0--------
4)--0------------------2-------------------0----------------
5)---------------------------------------2------------------
6)-------------------------------------3--------------------


                 G5
Deja que brille lo extraño,
 G5                 A5
aunque sea sólo un momento.
 G5                       A5
Ya habrá tiempo de sobra cuando,
 G5                    A5
al fin se apague mi aliento.


Coro: G5 - A5 (A5 puede rasguearse también)


último arpegio:

Dm                 Am              G

1)------1------------------0---------------------3----3--3--
2)--------3------------------1-----------------3-----3--3---
3)----2------------------2-------------------0-----0--------
4)--0------------------2-------------------0----------------
5)---------------------------------------2------------------
6)-------------------------------------3--------------------


Termina en G.


Es largo y puede resultar denso sacarlo pero lo vale este increible tema.

            
            
Suggest correction
Creating personal tab
Creating personal tab
You can edit any tab online and save it as your Personal.

You can edit, replace or remove any tab part or add personal notes – all changes will be seen only by you.

Personal tabs can be accessed anytime from any device, even offline.
Learn more »
Give kudos to tab author, rate the tab!
1 2 3 4 5
comments
print report bad tab
guest
Wanna post a correction for this tab? Suggest correction