Oops, an error
Loading. Please wait.

Vidas Pasadas chords

41 views 1 this week
no commentswrite comment
1 2 3 4 5
3 more votes to show rating
add to favorites
×
Save as Personal and add changes to this tab that will be seen only by you. Learn more ›
×
You can save this tab as Personal to edit and correct it or add notes. All changes will be seen only by you. Learn more »
launch autoscroll
font size
0
reset
transpose
0
reset
display chords
guitar tuner
edit
Autoscroll
slow
fast
+/-
esc
set tempo
stop
Strumming
There is no strumming pattern for this song yet. and get +5 IQ
Intro:


         Am            G             F           Em

1)-------5-------------3-------------1------------0-----
2)---------5-------------3-------------1------------0---
3)-----------5-------------4-------------2------------0-
4)-----7-------------5-------------3------------2-------
5)---7-------------5-------------3------------2---------
6)-5-------------3-------------1------------0-----------


 Am               G
Otro día, tu mirada
 G
va buscando reflejarse
 F                    Em
en los ojos que esperabas
 Am                       G
ya no existe ya no hay nada
 G
que te calme bien el alma
 F                 Em
preso en vidas pasadas
 Am                     G
Y encerrado, ya sin calma,
 G
otra vez la esperabas
 F                    Em
y el silencio te acorrala.


 C           G
Me perdí en tí,
 F           Am
me olvidé de mí,
 C                  G
y aunque no estés aquí,
 F                   Am
siempre irás junto a mí.


Coro: C - G - F - Am (x2) Em

Am - G - F - Em (Arpegiado)

Termina con un arreglo en Am:

2)-----------------------15---------------------------------------------
3)--------12--14--12--14----12--14^--12-----------------12----12-HO-14v-
4)-12-HO-14--------------------------------14--12-HO-14----14-----------


Fin.


Nota: En los versos cuando pasa de Em a Am hace un arreglo muy sensillo:

6)-0-3-0---5-Am-


Referencias: HO: Hammer-On (Ligado)
             V: Vibrato

            
            
Suggest correction
Creating personal tab
Creating personal tab
You can edit any tab online and save it as your Personal.

You can edit, replace or remove any tab part or add personal notes – all changes will be seen only by you.

Personal tabs can be accessed anytime from any device, even offline.
Learn more »
Give kudos to tab author, rate the tab!
1 2 3 4 5
comments
print report bad tab
guest
Wanna post a correction for this tab? Suggest correction