Oops, an error
Loading. Please wait.

Los Indiferentes tab

29 views 1 this week
no commentswrite comment
1 2 3 4 5
3 more votes to show rating
add to favorites
×
Save as Personal and add changes to this tab that will be seen only by you. Learn more ›
×
You can save this tab as Personal to edit and correct it or add notes. All changes will be seen only by you. Learn more »
launch autoscroll
font size
0
reset
how to read this tab
guitar tuner
edit
Autoscroll
slow
fast
+/-
esc
set tempo
stop
TONO: F#m

Intro:
  F#m         C#m  E     Bm
E|-2--------------------------------------|
B|--2--------2----------------------------|
G|---2-----4-------1--1-2-4---------------|
D|----4---------------------0---7-4~------|
A|-------------4~-------------4-----------|
E|----------------------------------------|


F#m      C#m
Algo te pasó
E           Bm
yo no tengo duda
F#m             C#m
me las despejaste ayer
E             Bm
si quedaba alguna

F#m           C#m
¿A quien defendes?
E              Bm
¿cuales son tus miedos?
F#m         C#m
explicale vos si queres
E            Bm
porque yo no puedo

F#m            C#m
Algo mas debe haber
E               Bm
porque no te entiendo
F#m           C#m
todo está tan claro, sabés
E       Bm  D
tan claro...

A                     E        Bm
Yo no entiendo como podes, pensar
   D
si te volaron la cabeza,
A               E            Bm
vos no podes pensar, que no tenes
           D
nada que hacer

Intro:
F#m C#m E Bm
2da Guitarra:
   F#m        C#m       E        Bm
E|-----------------------------------------------|
B|-/14~-7~--/12~-5~--/12~-5~-/12~-/14~~-------| Casi ni
G|-----------------------------------------------| se escucha...
D|-----------------------------------------------|
A|-----------------------------------------------|
E|-----------------------------------------------|

F#m            C#m
Solo con tu decision
E               Bm
terminaba el duelo
F#m            C#m
era la oportunidad
E               Bm
de seguir tu vuelo

F#m             C#m
Algo mas debe haber
E                Bm
porque no te entiendo
F#m           C#m
todo está tan claro, sabés
E       Bm   D
tan claro...

A                     E        Bm   |
Yo no entiendo como podes, pensar   |
     D                              |
SI te volaron LA cabeza,            |
A                E             Bm   | x2
vos no podes pensar, que no tenes   |
           D                        |
nada que hacer                      |

Outro:
    A         E         Bm           D         A
E|-------------------------------------------------|
B|-------------------------------------------------|
G|-------------------------------------------------|
D|-------------------------------------------------|
A|--4~--7-5-4-2~--7-5-4-0-2~--4-4-5-(0)--5-4---4~--|
E|-----------------------------------5~------5-----|
                                        |________|
                                    Esta parte cambia en
                                   el final y termina con
                                  un La en la sexta cuerda.
Referencias:
~ = Vibrato
/ = Slide hacia adelante
 = Slide hacia atras
h = Hammer on
p = Pull off
b = Bend (levantar cuerda)
r = Release (bajar/soltar cuerda)
(x) = Nota opcional

Cualquier cosa: agustin_mrgo@

            
            
Suggest correction
Creating personal tab
Creating personal tab
You can edit any tab online and save it as your Personal.

You can edit, replace or remove any tab part or add personal notes – all changes will be seen only by you.

Personal tabs can be accessed anytime from any device, even offline.
Learn more »
Give kudos to tab author, rate the tab!
1 2 3 4 5
comments
print report bad tab
guest
Wanna post a correction for this tab? Suggest correction