Oops, an error
Loading. Please wait.

Ni Uno Suelto tab

version 3
version 3

Whole song

29 views 1 this week
no commentswrite comment
1 2 3 4 5
3 more votes to show rating
add to favorites
×
Save as Personal and add changes to this tab that will be seen only by you. Learn more ›
×
You can save this tab as Personal to edit and correct it or add notes. All changes will be seen only by you. Learn more »
launch autoscroll
font size
0
reset
how to read this tab
guitar tuner
edit
Autoscroll
slow
fast
+/-
esc
set tempo
stop
Esta es mi primer tab y no tengo mucho tiempo
en la guitarra pero queria agregar algo
que no se encuentra actualmente en las
tablaturas que hay de este tema.
La intro del tema ya esta subida
por otros usuarios, lo unico que quiero agregar
son los punteos que va haciendo la otra guitarra
durante la cancion. Espero que esten
bien o tengan la menor cantidad de errores posibles
y a la vez, sirva para que alguien
mas experimentado en esto y que le interese o le guste
el tema pueda "pulirlos". Mi mail
por cualquier cosa es jonab_manu@

Segundo 29:

e------------5-------------|
B----------5-6-5h6p5-------|
G-4h5p4--------------5-4---|
D--------------------------|
A--------------------------|
E--------------------------|

Segundo 39:

e---------------------|
B-5-5-6-5--3-1--5-6-5-|
G-5-5-5-5--4-2--5-5-4-|
D---------------------|
A---------------------|
E---------------------|

Segundo 50:

e---------------------|
B---------------------|
G---------------------|
D-3-2------3-2-0------|
A------3-2------------|
E---------------------|

Minuto 1:30:

e-----------------------|
B--5-5--3-3--6-5--------|
G--5-5--4-4-------7-5-4-|
D-----------------------|
A-----------------------|
E-----------------------|

Minuto 1:41:

e--------7-----7--------|
B-5-5-5--5-5-5-5--5-5-5-|
G-7-7-7----7-7----7-7-5-|
D-----------------------|
A-----------------------|
E-----------------------|

Minuto 2:22:

e------5---------|
B------6-5-------|
G-5-5------7-5-2-|
D----------------|
A----------------|
E----------------|

Minuto 2:33:

e----------5-3---|
B------5-3-----5-|
G-5-4------------|
D----------------|
A----------------|
E----------------|

            
            
Suggest correction
Creating personal tab
Creating personal tab
You can edit any tab online and save it as your Personal.

You can edit, replace or remove any tab part or add personal notes – all changes will be seen only by you.

Personal tabs can be accessed anytime from any device, even offline.
Learn more »
Give kudos to tab author, rate the tab!
1 2 3 4 5
comments
print report bad tab
guest
Wanna post a correction for this tab? Suggest correction