Oops, an error
Loading. Please wait.

Growing Down bass

version 1
version 1

Whole song

Interactive

325 views 6 this week
2 commentsread comments
1 2 3 4 5
1 last vote to show rating
add to favorites
×
Save as Personal and add changes to this tab that will be seen only by you. Learn more ›
×
You can save this tab as Personal to edit and correct it or add notes. All changes will be seen only by you. Learn more »
launch autoscroll
font size
0
reset
guitar tuner
edit
Autoscroll
slow
fast
+/-
esc
set tempo
stop
Song: Growing Down
Band: No Use For A Name
Album: Making Friends
tabbed by: Oly 

*  = play about 8 times
** = play about 16 times

INTRO

G:---------------------------------------------------------------
D:--------------00-----------------------------------------------
A:-----------------33-22-00--------------------------------------
E:--3**-0**-3**--------------------------------------------------

VERSE

G:---------------------------------------------------------------
D:--------------0**----------------------------------------------
A:----------3**-------------3*-4*-5*-6*--------------------------
E:--3**-0**---------3**-0**--------------------------------------

CHORUS

G:---------------------------------------------------------------
D:--2**-0**---------2**-0**---------0**--------------------------
A:----------3**-------------3**---------3*-1*--------------------
E:--------------3**-------------3**------------------------------

VERSE 2 - same as first
2nd CHORUS - same as first
BRIDGE - geetar first, then:
      she's sinking to the bottom and he can't feel her pain
G:---------------------------------------------------------------
D:------------1*-------------0*----------------------------------
A:---------------------------------------------------------------
E:-----------------------------------------3*------------4*------

      too late cause the seeds were sown
G:---------------------------------------------------------------
D:-----1*------------------0*------------------------------------
A:---------------------------------------------------------------
E:------------------------------------3*-------------------------

3rd CHORUS - same as first two
OUTRO

G:---------------------------------------------------------------
D:--------------0**-------------00-------------------------------
A:---------------------------------33-22-00----------------------
E:--3**-0**-3**-----3**-0**-3**--------------3-------------------

            
            
Suggest correction
Creating personal tab
Creating personal tab
You can edit any tab online and save it as your Personal.

You can edit, replace or remove any tab part or add personal notes – all changes will be seen only by you.

Personal tabs can be accessed anytime from any device, even offline.
Learn more »
Give kudos to tab author, rate the tab!
1 2 3 4 5
comments
print report bad tab
2 comments total.
0 reply
frankie_hell 10 Jan 18, 2007 11:10 AM

the tab it's good, but i think it would be more correct if you move the G from 1st chord to 3rd and the E from 1st chord to 2nd

so you have in the INTRO (for example)
G--------------------------------------
D-----7**---7**--00---------------------
A--------5**-------33-22-00-------------
E---------------------------------------

0 reply
frankie_hell 10 Jan 18, 2007 11:16 AM

uff.. i ve done a mess.. SORRY!!

ERASE my previous tab!!

this is what i wanted to say before:
G--------------------------------------
D-----5**---5**--00---------------------
A--------7**-------33-22-00-------------
E---------------------------------------

my 1st post = a total mess

guest
Wanna post a correction for this tab? Suggest correction