Oops, an error
Loading. Please wait.
We have an official International You Day tab made by UG professional guitarists. Check out the tab »
×
7,444 views 15 this week
3 commentsread comments
1 2 3 4 5
1 last vote to show rating
add to favorites
×
Save as Personal and add changes to this tab that will be seen only by you. Learn more ›
×
You can save this tab as Personal to edit and correct it or add notes. All changes will be seen only by you. Learn more »
launch autoscroll
font size
0
reset
how to read this tab
guitar tuner
edit
Autoscroll
slow
fast
+/-
esc
set tempo
stop
Author
this is my first tab but its almost 100% accurate

intro
E------------------------------------------------
B------------------------------------------------
G-8-7-8-7-10-8--3-5-3--12-10-12-10-13-12-7-8-10--   Guitar 1
D------------------------------------------------
A-6-5-6-5--8-6--1-3-1--10--8-10--8-11-10-5-6--8--
E------------------------------------------------

E-------------------------------
B-------------------------------
G-------------------------------
D---------------8--x8----------- play full chords on repeat
A--10-x8--6-x8-6-------8-x8-----
E-8------4------------6---------

verse
E--------------------------------------------
B--------------------------------------------
G-----------------------------1st-----2nd----
D----------------------8--x8-----------------
A--10-x6--8-x2--6-x8--6-------8-x8-----5-----
E-8------6-----4-------------6---------3-----

prechorus
E----------------------------------------
B----------------------------------------
G----------------------------------------
D----------------------------------------    don't know high part
A-6--x8-8--x8--5--x8-10-x4-8--x4--6--x12-
E-4-----6------3------8----6------4------

chorus
E---------------------------------------------
B---------------------------------------------
G-----------------------------1st------2nd----
D-8--x8---------------------------------------
A-6-----10--x8--8--x8---6-x4--6-x4------8-x4--
E--------8------6-------4-----3---------6-----

outro
E------------------------------------------------
B---------------1st-------2nd------------end on--
G-8----7----3---5----3---------------------------
D---x8---x8--x8---x4--x4-------------------8-----
A-6----5----1---3----1----6--x4--8--x4-----6-----
E-------------------------4------6---------------

thats pretty much it

all aboard the jua train!

            
            
Suggest correction
Creating personal tab
Creating personal tab
You can edit any tab online and save it as your Personal.

You can edit, replace or remove any tab part or add personal notes – all changes will be seen only by you.

Personal tabs can be accessed anytime from any device, even offline.
Learn more »
Give kudos to tab author, rate the tab!
1 2 3 4 5
comments
print report bad tab
3 comments total.
0 reply
HaRdKoRe12 30 Feb 09, 2003 07:00 PM

the second guiatr part for the 1st verse is:
E|------------------------------
A|------------------------------
D|------------------------------
G|-10-x4-8-x2-6-x2--------------
B|---8----7----5----------------
E|------------------------------

0 reply
HaRdKoRe12 30 Feb 09, 2003 07:00 PM

the second guiatr part for the 1st verse is:
E|------------------------------
A|------------------------------
D|------------------------------
G|-10-x4-8-x2-6-x2--------------
B|---8----7----5----------------
E|------------------------------

0 reply
Cmnoname 10 Mar 30, 2015 07:25 PM

Lack of formatting. Tab incomplete. everything is pushed together making it hard to read and there are clearly guitar parts that are in the song not displayed in this tab.

guest
You may want to rate the tab now too:
select rating
Wanna post a correction for this tab? Suggest correction