Oops, an error
Loading. Please wait.
We have an official International You Day tab made by UG professional guitarists. Check out the tab »
×
1,646 views 1 this week
no commentswrite comment
1 2 3 4 5
3 more votes to show rating
add to favorites
×
Save as Personal and add changes to this tab that will be seen only by you. Learn more ›
×
You can save this tab as Personal to edit and correct it or add notes. All changes will be seen only by you. Learn more »
launch autoscroll
font size
0
reset
how to read this tab
guitar tuner
edit
Autoscroll
slow
fast
+/-
esc
set tempo
stop
Author
International You Day
No Use For A Name


Intro Riff x2
e|-----------------------------------------------|
B|-----------------------------------------------|
G|--8-7-8-7--10-8--5-3-5~---12-10-12-10--7-8-10--|
D|--x-x-x-x---x-x--x-x-x~----x--x--x--x--x-x--x--|
A|--7-6-7-6---8-6--3-1-3~---10--8-10--8--5-6--8--|
E|-----------------------------------------------|


Verse (‘I’m sorry that it took so long to write this song.....”)
e|----------------------------------------------------------------|
B|----------------------------------------------------------------|
G|----------------------------------------------------------------|
D|---5-5-5-5-5-5----------------------8-8-8-8-8-8-----------------|   
A|--3-3-3-3-3-3-----8-8--6-6-6-6-6-6---6-6-6-6-6-6---8-8-8-8-8-8--|
E|-----------------6-6--4-4-4-4-4-4-----------------6-6-6-6-6-6---|
Pm  ............   .... ............ .............  ............

e|-------------------------------------------------------------------|
B|-------------------------------------------------------------------|
G|-------------------------------------------------------------------|
D|---5-5-5-5-5-5----------------------8-8-8-8-8-8---5-5-5-5-5-5-5-5--|   
A|--3-3-3-3-3-3-----8-8--6-6-6-6-6-6---6-6-6-6-6-6--5-5-5-5-5-5-5-5--|
E|-----------------6-6--4-4-4-4-4-4-----------------3-3-3-3-3-3-3-3--|
Pm  ............   .... ............ .............    ......>


Verse (‘I should have told you from the start.....’)
e|----------------------------------------------|
B|----------------------------------------------|
G|--13-13-13-13--12-12-12-12--8-8-8-8--7-7-7-7--|
D|---x--x--x--x---x--x--x--x--x-x-x-x--x-x-x-x--|
A|--11-11-11-11--10-10-10-10--6-6-6-6--5-5-5-5--|
E|----------------------------------------------| 

e|-----------------------------------------------------|
B|-----------------------------------------------------|
G|--15-15--13-13-13-13--12-12-12-12-----------8-8-8-8--|
D|---x--x---x--x--x--x---x--x--x--x--8-8-8-8--x-x-x-x--|
A|--13-13--11-11-11-11--10-10-10-10--6-6-6-6--6-6-6-6--|
E|-----------------------------------------------------|


Pre-Chorus (‘Nothing that I’ve tried is as simple as this line.....’)
e|---------------------------------------|
B|---------------------------------------|
G|---------------------------------------|
D|--5-5-5-5-5-5-5-5----------------------|
A|--3-3-3-3-3-3-3-3--6-6-6-6-6-6-6-6--6--|
E|-------------------4-4-4-4-4-4-4-4--3--|


Chorus (‘Without you, my life is incomplete.....’)
e|-----------------------------------------------------------------|
B|-----------------------------------------------------------------|
G|-----------------------------------------------------------------|
D|--8-8-8-8-8-8----------------------------------------------------| x2
A|--6-6-6-6-6-6--10-10-10-10-10-10--8-8-8-8-8-8--6-6-6-6--6-6-6-6--|
E|----------------8--8--8--8--8--8--6-6-6-6-6-6--4-4-4-4--3-3-3-3--|


Intro Riff x1


Verse (‘I swear I’m giving up my inside to the one that I adore.....’)
e|---------------------------------------------------------------|
B|---------------------------------------------------------------|
G|---------------------------------------------------------------|
D|--5-5-5-5-5-5---------------------------------8-8-8-8-8-8-8-8--|   
A|--3-3-3-3-3-3--8-8--6-6-6-6-6-6--6-6-6-6-6-6--6-6-6-6-6-6-6-6--|
E|---------------6-6--4-4-4-4-4-4--3-3-3-3-3-3-------------------|

e|-----1st-time------|-----2nd-time------|
B|-------------------|-------------------|
G|--7-7-7-7-7-7-7-7--|--7-7-7-7-7-7-7-7--|
D|--x-x-x-x-x-x-x-x--|--7-7-7-7-7-7-7-7--|
A|--5-5-5-5-5-5-5-5--|--5-5-5-5-5-5-5-5--|
E|-------------------|-------------------|


Verse (‘I’m coming home today to wipe the teardrops from your eyes.....’)
e|----------------------------------------------|
B|----------------------------------------------|
G|--13-13-13-13--12-12-12-12--8-8-8-8--7-7-7-7--|
D|---x--x--x--x---x--x--x--x--x-x-x-x--x-x-x-x--|
A|--11-11-11-11--10-10-10-10--6-6-6-6--5-5-5-5--|
E|----------------------------------------------| 

e|-----------------------------------------------------|
B|-----------------------------------------------------|
G|--15-15--13-13-13-13--12-12-12-12-----------7-7-7-7--|
D|---x--x---x--x--x--x---x--x--x--x--8-8-8-8--7-7-7-7--|
A|--13-13--11-11-11-11--10-10-10-10--6-6-6-6--5-5-5-5--|
E|-----------------------------------------------------|


Chorus (‘Without you, my life is incomplete.....’)
e|-----------------------------------------------------------------|
B|-----------------------------------------------------------------|
G|-----------------------------------------------------------------|
D|--8-8-8-8-8-8----------------------------------------------------| x2
A|--6-6-6-6-6-6--10-10-10-10-10-10--8-8-8-8-8-8--6-6-6-6--6-6-6-6--|
E|----------------8--8--8--8--8--8--6-6-6-6-6-6--4-4-4-4--3-3-3-3--|


Breakdown (‘My life is incomplete.....’)
e|-----------------------------------------------------------------|
B|-----------------------------------------------------------------|
G|-----------------------------------------------------------------|
D|--8-8-8-8-8-8----------------------------------------------------| x2
A|--6-6-6-6-6-6--10-10-10-10-10-10--8-8-8-8-8-8--6-6-6-6--6-6-6-6--|
E|----------------8--8--8--8--8--8--6-6-6-6-6-6--4-4-4-4--3-3-3-3--|

End 
e|------|
B|------|
G|------|
D|--8~--| 
A|--6~--|
E|------|

            
            
Suggest correction
Creating personal tab
Creating personal tab
You can edit any tab online and save it as your Personal.

You can edit, replace or remove any tab part or add personal notes – all changes will be seen only by you.

Personal tabs can be accessed anytime from any device, even offline.
Learn more »
Give kudos to tab author, rate the tab!
1 2 3 4 5
comments
print report bad tab
guest
You may want to rate the tab now too:
select rating
Wanna post a correction for this tab? Suggest correction