Oops, an error
Loading. Please wait.

Yours To Destroy tab

1,894 views 1 this week
2 commentsread comments
1 2 3 4 5
2 more votes to show rating
add to favorites
×
Save as Personal and add changes to this tab that will be seen only by you. Learn more ›
×
You can save this tab as Personal to edit and correct it or add notes. All changes will be seen only by you. Learn more »
launch autoscroll
font size
0
reset
how to read this tab
guitar tuner
edit
Autoscroll
slow
fast
+/-
esc
set tempo
stop
Author
Yours To Destroy
No Use For A Name


Intro
e|----------------------------------------------------------------------|
B|----------------------------------------------------------------------|
G|----------------------------------------------------------------------|
D|------2-2/4~----------------------------------------------------------|
A|--4-0-------------4-0-------------5-5-5-5--7-7-7-7--9-9-9-9--7-7-7-7--|
E|-------------7~-------0-0/2~--0~--------------------------------------|


Verse (“Suddenly I see myself returning.....”)
e|---------------------------------------------------------------------------------|
B|---------------------------------------------------------------------------------|
G|---------------------------------------------------------------------------------|
D|--7-7-7-7-7-7--4-4-4-4-4-4---------------7-7-7-7--9-9-9-9--11-11-11-11--9-9-9-9--|
A|--5-5-5-5-5-5--2-2-2-2-2-2--7-7-7-7-7-7--5-5-5-5--7-7-7-7---9--9--9--9--7-7-7-7--|
E|----------------------------5-5-5-5-5-5------------------------------------------|
Pm  . . . . . .  . . . . . .  . . . . . .  . . . .  . . . .   .  .  .  .  . . . .

e|------------------------------------------------------|
B|------------------------------------------------------|
G|------------------------------------------------------|
D|--7-7-7-7-7-7-----------------------------------------|
A|--5-5-5-5-5-5--9-9-9-9-9-9--7-7-7-7-7-7--5-5-5-5-5-5--|
E|---------------7-7-7-7-7-7--5-5-5-5-5-5--3-3-3-3-3-3--|
    . . . . . .  . . . . . .  . . . . . .  . . . . . .

Verse (“I never thought that we were miserable.....”)
e|--------------------------------------------------------------|
B|--------------------------------------------------------------|
G|--12--12--12--12--12--12--12--12---9--9--9--9--9--9---12--12--|
D|---x---x---x---x---x---x---x---x---x--x--x--x--x--x----x---x--|
A|--10--10--10--10--10--10--10--10---7--7--7--7--7--7---10--10--|
E|--------------------------------------------------------------|

e|-------------------------------------------------------------|
B|-------------------------------------------------------------|
G|--11--11--11--11--11--11--11--11---7--7--7--7---5--5---4--4--|
D|---x---x---x---x---x---x---x---x---x--x--x--x---x--x---x--x--|
A|---9---9---9---9---9---9---9---9---5--5--5--5---3--3---2--2--|
E|-------------------------------------------------------------|

e|------------------------------------------------------|
B|------------------------------------------------------|
G|--12--12--12--12--12--12--12--12---16~--14~--12~--9~--|
D|---x---x---x---x---x---x---x---x----x----x----x---x---|
A|--10--10--10--10--10--10--10--10---14~--12~--10~--7~--|
E|------------------------------------------------------|


Chorus (“Driving out into another state.....”)
e|---------------------------------------------------------------------------|
B|---------------------------------------------------------------------------|
G|---------------------------------------------------------------------------|
D|--7-7-7-7-7-7--7-7-7-7-7-7--9-9-9-9-9-9--5-5-5-5-5-5-5-5-5-5-5-5-----------|
A|--5-5-5-5-5-5--7-7-7-7-7-7--9-9-9-9-9-9--5-5-5-5-5-5-5-5-5-5-5-5--5-5-5-5--|
E|---------------5-5-5-5-5-5--7-7-7-7-7-7--3-3-3-3-3-3-3-3-3-3-3-3--2-2-2-2--|

e|----------------------------|
B|----------------------------|
G|----------------------------|
D|--2-2-2-2-2-2--7-7-7-7-7-7--|
A|--2-2-2-2-2-2--7-7-7-7-7-7--|
E|--0-0-0-0-0-0--5-5-5-5-5-5--|
Fill
e|--------------------------------------------------|
B|--------------------------------------------------|
G|--9-9-9-9--11-11-11-11--12-12-12-12--11-11-11-11--|
D|--x-x-x-x---x--x--x--x---x--x--x--x---x--x--x--x--|
A|--7-7-7-7---9--9--9--9--10-10-10-10---9--9--9--9--|
E|--------------------------------------------------|

e|------------------------------------------------------|
B|------------------------------------------------------|
G|--11-11-11-11--12-12-12-12--14-14-14-14--12-12-12-12--|
D|---x--x--x--x---x--x--x--x---x--x--x--x---x--x--x--x--|
A|---9--9--9--9--10-10-10-10--12-12-12-12--10-10-10-10--|
E|------------------------------------------------------|


Verse (“Panic followed blindly by depression.....”)
e|---------------------------------------------------------------------------------|
B|---------------------------------------------------------------------------------|
G|---------------------------------------------------------------------------------|
D|--7-7-7-7-7-7--4-4-4-4-4-4---------------7-7-7-7--9-9-9-9--11-11-11-11--9-9-9-9--|
A|--5-5-5-5-5-5--2-2-2-2-2-2--7-7-7-7-7-7--5-5-5-5--7-7-7-7---9--9--9--9--7-7-7-7--|
E|----------------------------5-5-5-5-5-5------------------------------------------|
Pm  . . . . . .  . . . . . .  . . . . . .  . . . .  . . . .   .  .  .  .  . . . .

e|------------------------------------------------------|
B|------------------------------------------------------|
G|------------------------------------------------------|
D|--7-7-7-7-7-7-----------------------------------------|
A|--5-5-5-5-5-5--9-9-9-9-9-9--7-7-7-7-7-7--5-5-5-5-5-5--|
E|---------------7-7-7-7-7-7--5-5-5-5-5-5--3-3-3-3-3-3--|
    . . . . . .  . . . . . .  . . . . . .  . . . . . .


Verse (“I never thought that we were miserable.....”)
e|--------------------------------------------------------------|
B|--------------------------------------------------------------|
G|--12--12--12--12--12--12--12--12---9--9--9--9--9--9---12--12--|
D|---x---x---x---x---x---x---x---x---x--x--x--x--x--x----x---x--|
A|--10--10--10--10--10--10--10--10---7--7--7--7--7--7---10--10--|
E|--------------------------------------------------------------|

e|-------------------------------------------------------------|
B|-------------------------------------------------------------|
G|--11--11--11--11--11--11--11--11---7--7--7--7---5--5---4--4--|
D|---x---x---x---x---x---x---x---x---x--x--x--x---x--x---x--x--|
A|---9---9---9---9---9---9---9---9---5--5--5--5---3--3---2--2--|
E|-------------------------------------------------------------|

e|------------------------------------------------------|
B|------------------------------------------------------|
G|--12--12--12--12--12--12--12--12---16~--14~--12~--9~--|
D|---x---x---x---x---x---x---x---x----x----x----x---x---|
A|--10--10--10--10--10--10--10--10---14~--12~--10~--7~--|
E|------------------------------------------------------|


Chorus (“Driving out into another state.....”)
e|---------------------------------------------------------------------------|
B|---------------------------------------------------------------------------|
G|---------------------------------------------------------------------------|
D|--7-7-7-7-7-7--7-7-7-7-7-7--9-9-9-9-9-9--5-5-5-5-5-5-5-5-5-5-5-5-----------|
A|--5-5-5-5-5-5--7-7-7-7-7-7--9-9-9-9-9-9--5-5-5-5-5-5-5-5-5-5-5-5--5-5-5-5--|
E|---------------5-5-5-5-5-5--7-7-7-7-7-7--3-3-3-3-3-3-3-3-3-3-3-3--2-2-2-2--|



e|----------------------------|
B|----------------------------|
G|----------------------------|
D|--2-2-2-2-2-2--7-7-7-7-7-7--|
A|--2-2-2-2-2-2--7-7-7-7-7-7--|
E|--0-0-0-0-0-0--5-5-5-5-5-5--|


Fill
e|--------------------------------------------------|
B|--------------------------------------------------|
G|--9-9-9-9--11-11-11-11--12-12-12-12--11-11-11-11--|
D|--x-x-x-x---x--x--x--x---x--x--x--x---x--x--x--x--|
A|--7-7-7-7---9--9--9--9--10-10-10-10---9--9--9--9--|
E|--------------------------------------------------|

e|------------------------------------------------------|
B|------------------------------------------------------|
G|--11-11-11-11--12-12-12-12--14-14-14-14--12-12-12-12--|
D|---x--x--x--x---x--x--x--x---x--x--x--x---x--x--x--x--|
A|---9--9--9--9--10-10-10-10--12-12-12-12--10-10-10-10--|
E|------------------------------------------------------|

e|------------------------------------------------------|
B|------------------------------------------------------|
G|--12-12-12-12--14-14-14-14--16-16-16-16--18-18-18-18--|
D|---x--x--x--x---x--x--x--x---x--x--x--x---x--x--x--x--|
A|--10-10-10-10--12-12-12-12--14-14-14-14--16-16-16-16--|
E|------------------------------------------------------|


Verse (“And if I have to follow you.....”) 
e|---------------------------------------------------|
B|---------------------------------------------------|
G|--19-19-19-19-19-19-19-19-19-19-19-19-19-19-19-19--|
D|---x--x--x--x--x--x--x--x--x--x--x--x--x--x--x--x--|
A|--17-17-17-17-17-17-17-17-17-17-17-17-17-17-17-17--|
E|---------------------------------------------------|

e|-----------------------------------------------------------------|
B|-----------------------------------------------------------------|
G|--19-19-19-19--18-18-18-18--16-16-16-16-16-16-16-16-16-16-16-16--|
D|---x--x--x--x---x--x--x--x---x--x--x--x--x--x--x--x--x--x--x--x--|
A|--17-17-17-17--16-16-16-16--14-14-14-14-14-14-14-14-14-14-14-14--|
E|-----------------------------------------------------------------|

e|-----------------------------------------------------------------------|
B|-----------------------------------------------------------------------|
G|--14-14-14-14-14-14-14-14-14-14--12-12-12-12--11-11-11-11-11-11-11-11--|
D|---x--x--x--x--x--x--x--x--x--x---x--x--x--x---x--x--x--x--x--x--x--x--|
A|--12-12-12-12-12-12-12-12-12-12--10-10-10-10---9--9--9--9--9--9--9--9--|
E|-----------------------------------------------------------------------|

e|---------------------------------------------------|
B|---------------------------------------------------|
G|--19-19-19-19-19-19-19-19-19-19-19-19-19-19-19-19--|
D|---x--x--x--x--x--x--x--x--x--x--x--x--x--x--x--x--|
A|--17-17-17-17-17-17-17-17-17-17-17-17-17-17-17-17--|
E|---------------------------------------------------|

e|-----------------------------------------------------------------|
B|-----------------------------------------------------------------|
G|--19-19-19-19--18-18-18-18--16-16-16-16-16-16-16-16-16-16-16-16--|
D|---x--x--x--x---x--x--x--x---x--x--x--x--x--x--x--x--x--x--x--x--|
A|--17-17-17-17--16-16-16-16--14-14-14-14-14-14-14-14-14-14-14-14--|
E|-----------------------------------------------------------------|

e|---------------------------------|
B|---------------------------------|
G|--14-14-14-14-14-14-14-14-14-14--|
D|---x--x--x--x--x--x--x--x--x--x--|
A|--12-12-12-12-12-12-12-12-12-12--|
E|---------------------------------|


End (“And if you come around, I may just not be found”) 
e|----------|
B|----------|
G|--7~------|
D|--7~--4~--|
A|--5~--4~--|
E|------2~--|



            
            
Suggest correction
Creating personal tab
Creating personal tab
You can edit any tab online and save it as your Personal.

You can edit, replace or remove any tab part or add personal notes – all changes will be seen only by you.

Personal tabs can be accessed anytime from any device, even offline.
Learn more »
Give kudos to tab author, rate the tab!
1 2 3 4 5
comments
print report bad tab
2 comments total.
+1 reply
esseniloveyou 370 Jul 20, 2013 11:48 AM

The second verse part should be:
e|--------------------------------------------------------------|
B|--------------------------------------------------------------|
G|--12--12--12--12--12--12--12--12---7--7--7--7--7--7---7---7--|
D|---x---x---x---x---x---x---x---x---x--x--x--x--x--x---x---x--|
A|--10--10--10--10--10--10--10--10---5--5--5--5--5--5---5---5--|
E|--------------------------------------------------------------|

e|-------------------------------------------------------------|
B|-------------------------------------------------------------|
G|--11--11--11--11--11--11--11--11---9--9--9--9---7--7---6--6--|
D|---x---x---x---x---x---x---x---x---x--x--x--x---x--x---x--x--|
A|---9---9---9---9---9---9---9---9---7--7--7--7---5--5---4--4--|
E|-------------------------------------------------------------|

e|------------------------------------------------------|
B|------------------------------------------------------|
G|--12--12--12--12--12--12--12--12---16~--14~--12~--7~--|
D|---x---x---x---x---x---x---x---x----x----x----x---x---|
A|--10--10--10--10--10--10--10--10---14~--12~--10~--5~--|
E|------------------------------------------------------|

0 reply
BlenderBR 18,046 Nov 03, 2013 12:47 PM

Esseniloveyou is right. Sound better this way.

But everything else sounds great. Thanks for tabbing this.

guest
You may want to rate the tab now too:
select rating
Wanna post a correction for this tab? Suggest correction