Oops, an error
Loading. Please wait.

2 Atoms In A Molecule tab

version 1
version 1

Whole song

33,436 views 15 this week
4 commentsread comments
1 2 3 4 5
x 7
add to favorites
×
Save as Personal and add changes to this tab that will be seen only by you. Learn more ›
×
You can save this tab as Personal to edit and correct it or add notes. All changes will be seen only by you. Learn more »
launch autoscroll
font size
0
reset
how to read this tab
guitar tuner
edit
Autoscroll
slow
fast
+/-
esc
set tempo
stop
Capo 2nd

e --------------------------------------------------------------|
a --------------------------------------------------------------|
d ----2--2---------0--0---------0--0----------------------------|
g -0-------4----2-------4------------------------0--------------|
b ---------------------------2-------2----0--0h2----------------|
E --------------------------------------------------------------|

/  slide up
| \  slide down
| h  hammer-on
| p  pull-off

            
            
Suggest correction
Creating personal tab
Creating personal tab
You can edit any tab online and save it as your Personal.

You can edit, replace or remove any tab part or add personal notes – all changes will be seen only by you.

Personal tabs can be accessed anytime from any device, even offline.
Learn more »
comments
print report bad tab
4 comments total. Showing first comments.
0 reply
thefentoozler77 31 Oct 16, 2008 04:35 PM

So youve got the strings backwards...

Anyways, this is mostly right except i want to say that it ends on 4th fret on the A string (which you have marked as a b)

e --------------------------------------------------------------|
a --------------------------------------------------------------|
d ----2--2---------0--0---------0--0----------------------------|
g -0-------4----2-------4-------------4-----------0-------------|
b ---------------------------2------------0--0h2----------------|
E --------------------------------------------------------------|

0 reply
MrSquee 31 Oct 17, 2008 12:05 PM

Cheers brother for pointing out the stupid mistake! i just reposted it with corrections as it was annoying me so much =p
nice try but definitely ends on an E (open D string with the capo)

i think this is pretty much it:

E --------------------------------------------------------------|
b --------------------------------------------------------------|
g ----2--2---------0--0---------0-------------------------------|
d -0-------4----2-------4----------0--------------0-------------|
a ---------------------------2--------2---0--0h2----------------|
e --------------------------------------------------------------|

btw... how awesome are noah and the whale!! =p
Happy playing!

0 reply
thefentoozler77 31 Dec 28, 2008 10:11 AM

they are really really good, i saw them when they came to the states in san francisco and it was pretty rad.

guest
You may want to rate the tab now too:
select rating
Wanna post a correction for this tab? Suggest correction