Oops, an error
Loading. Please wait.

Separator chords

3,761 views 3 this week
no commentswrite comment
1 2 3 4 5
x 5
add to favorites
×
Save as Personal and add changes to this tab that will be seen only by you. Learn more ›
×
You can save this tab as Personal to edit and correct it or add notes. All changes will be seen only by you. Learn more »
launch autoscroll
font size
0
reset
transpose
0
reset
simplify chords
display chords
guitar tuner
edit
Autoscroll
slow
fast
+/-
esc
set tempo
stop
Author
Difficulty
Strumming
There is no strumming pattern for this song yet. and get +5 IQ
Notes: Noah finger picks this song. I have tabbed out the intro to show how
I play the song.
The D* is a C chord two frets up on the neck. Noah uses this chord in many 
of his songs. And the C can be played as a C/G. 
Any feed back and / or corrections are much appreciated

-------------------------------------------------------------------------------
                             Separator - Noah Gundersen
-------------------------------------------------------------------------------
Tabbed by: oceanside
Tuning: Standard


Chord Diagrams:

     Em7    Am     C     B7     D*     D/F#
e|----0------0-----0------2-----0-------2------------------------------------|
B|----3------1-----1------0-----3-------3------------------------------------|
G|----0------2-----0------2-----0-------2------------------------------------|
D|----2------2-----2------1-----4-------0------------------------------------|
A|----2------0-----3------2-----5-------0------------------------------------|
E|----0------0-----0------0-----0-------2------------------------------------|


Intro: Em, Am, C, B7

e|-----0---------------------------------------------------------------------|
B|----3-0--------0-----------------------------------------0-----------------|
G|---------2p0--2-2-0------------0---------0------2---2------2---------------|
D|--2------2-----------2---------2---2-2-2--------1-1----1-------------------|
A|--2------------------3--0-2-3--3-3---3---3-2-0--0----2-2-------------------|
E|---------------------------------------------------------------------------|  (x2)



Verse 1:
                         Em7
Don't you wish you could go back
             Am
To when your heart sang like a burning bridge
          C
When your songs sang themselves
         B7
From the bottom of a well
       Em7
Yellow eyes, star ward bound
Am
Sickness was a reason to fuck around
      C 
Every shade turned blue
B7
All of this for you


Chorus:
       C             D*      
Our irises contract, hips swing quickly back
              B7
We're pushing air for the same reason
     Em         D/F#
It's pushing us back
     C                D*
Understand me, I wish nothing but the best for everyone
B7
But gold dust rivers run
Em          D/F#           C               B7
Deputize the sun, when the great separator comes for me


Verse 2:
                 Em7
Did you ever get lonely?
        Am
Did you run like dogs in the afternoon?
        C
Did you howl down the moon
B7
Hide it in your room
             Em7
My hands are filthy
       Am
I got ribs to spare from the garden 
          C
Please forgive me
     B7
If I act a little strange


Chorus:
   C             D*      
Irises contract, hips swing quickly back
              B7
We're pushing air for the same reason
     Em         D/F#
It's pushing us back
     C                D*
Understand me, I wish nothing but the best for everyone
B7
But gold dust rivers run
Em          D/F#           C               B7
Deputize the sun, when the great separator comes


Bridge:
C, D*, B7, Em, D/F# (x2)


Chorus:
       C             D*      
Our irises contract, hips swing quickly back
              B7
We're pushing air for the same reason
     Em         D/F#
It's pushing us back
     C                D*
Understand me, I wish nothing but the best for everyone
B7
But gold dust rivers run
Em          D/F#           C               B7
Deputize the sun, when the great separator comes

For me


            
            
Suggest correction
Creating personal tab
Creating personal tab
You can edit any tab online and save it as your Personal.

You can edit, replace or remove any tab part or add personal notes – all changes will be seen only by you.

Personal tabs can be accessed anytime from any device, even offline.
Learn more »
comments
print report bad tab
guest
You may want to rate the tab now too:
select rating
Wanna post a correction for this tab? Suggest correction