Oops, an error
Loading. Please wait.

Time Moves Quickly tab

49 views 1 this week
no commentswrite comment
1 2 3 4 5
3 more votes to show rating
add to favorites
×
Save as Personal and add changes to this tab that will be seen only by you. Learn more ›
×
You can save this tab as Personal to edit and correct it or add notes. All changes will be seen only by you. Learn more »
launch autoscroll
font size
0
reset
how to read this tab
guitar tuner
edit
Autoscroll
slow
fast
+/-
esc
set tempo
stop
About this tab version
Like the original, devised from the chords version. Very simple. Was this info helpful? Yes No
[Intro]
             C                C              C                  C
e|----------0-0-------------0-3-0-----------0-0---------------------------------------|
B|--------1-----3---------1---------------1-----3---------------1---------------------|
G|------0---------------0---------------0-------------------0-------0-----------------|
D|----2---------------2---------------2-----------------2-----------------------------|
A|--3---------------3---------------3---------------3---------------------------------|
E|------------------------------------------------------------------------------------|

[Chorus]
Time moves quickly, With or without me   You go fast, and I'll go slow
             C                C              C                  C
e|----------0-0-------------0-3-0-----------0-0---------------------------------------|
B|--------1-----3---------1-------3-------1-----3---------------1---------------------|
G|------0---------------0---------------0-------------------0-------0-----------------|
D|----2---------------2---------------2-----------------2-----------------------------|
A|--3---------------3---------------3---------------3---------------------------------|
E|------------------------------------------------------------------------------------|

[Verse]
I don't like you, Don't even want to   But I can't let you go
             C                C              C                  C
e|----------0-0-------------0-3-0-----------0-0---------------------------------------|
B|--------1-----3---------1-------3-------1-----3---------------1---------------------|
G|------0---------------0---------------0-------------------0-------0-----------------|
D|----2---------------2---------------2-----------------2-----------------------------|
A|--3---------------3---------------3---------------3---------------------------------|
E|------------------------------------------------------------------------------------|

[Verse]
But in these pictures, I can't not hear her   And all I see is all I know
            Am                C               Am                  C
e|----------0-0-------------0-3-0-------------0-0-------------------------------------|
B|--------1-----3---------1-------3---------1-----3---------------1-------------------|
G|------2---------------0-----------------2-------------------0-------0---------------|
D|----2---------------2-----------------2-----------------2---------------------------|
A|--0---------------3-----------------0---------------3-------------------------------|
E|------------------------------------------------------------------------------------|

[Chorus]
Time moves quickly, With or without me   You go fast, and I'll go slow
             C                C              C                  C
e|----------0-0-------------0-3-0-----------0-0---------------------------------------|
B|--------1-----3---------1-------3-------1-----3---------------1---------------------|
G|------0---------------0---------------0-------------------0-------0-----------------|
D|----2---------------2---------------2-----------------2-----------------------------|
A|--3---------------3---------------3---------------3---------------------------------|
E|------------------------------------------------------------------------------------|

[Verse]
You stick with me,  You never even kissed me   But I can't let you go
             C                C              C                  C
e|----------0-0-------------0-3-0-----------0-0---------------------------------------|
B|--------1-----3---------1-------3-------1-----3---------------1---------------------|
G|------0---------------0---------------0-------------------0-------0-----------------|
D|----2---------------2---------------2-----------------2-----------------------------|
A|--3---------------3---------------3---------------3---------------------------------|
E|------------------------------------------------------------------------------------|

[Outro] 
            Am                C               Am                  C
e|----------0-0-------------0-3-0-------------0-0-------------------------------------|
B|--------1-----3---------1-------3---------1-----3---------------1-------------------|
G|------2---------------0-----------------2-------------------0-------0---------------|
D|----2---------------2-----------------2-----------------2---------------------------|
A|--0---------------3-----------------0---------------3-------------------------------|
E|------------------------------------------------------------------------------------|

             C                C              C                  C
e|----------0-0-------------0-3-0-----------0-0---------------------------------------|
B|--------1-----3---------1-------3-------1-----3---------------1---------------------|
G|------0---------------0---------------0-------------------0-------0-----------------|
D|----2---------------2---------------2-----------------2-----------------------------|
A|--3---------------3---------------3---------------3---------------------------------|
E|------------------------------------------------------------------------------------|

            
            
Suggest correction
Creating personal tab
Creating personal tab
You can edit any tab online and save it as your Personal.

You can edit, replace or remove any tab part or add personal notes – all changes will be seen only by you.

Personal tabs can be accessed anytime from any device, even offline.
Learn more »
Give kudos to tab author, rate the tab!
1 2 3 4 5
comments
print report bad tab
guest
You may want to rate the tab now too:
select rating
Wanna post a correction for this tab? Suggest correction