Oops, an error
Loading. Please wait.

Final Fantasy Viii - Force Your Way tab

version 1
version 1

Whole song

Interactive

18,203 views 9 this week
no commentswrite comment
1 2 3 4 5
x 9
add to favorites
×
Save as Personal and add changes to this tab that will be seen only by you. Learn more ›
×
You can save this tab as Personal to edit and correct it or add notes. All changes will be seen only by you. Learn more »
launch autoscroll
font size
0
reset
how to read this tab
guitar tuner
edit
Autoscroll
slow
fast
+/-
esc
set tempo
stop
Author
Here's the boss theme for FFVIII.

There are a couple of nice riffs in this piece which are good and fast to play 
along with the recording.

E|-------------------------------------------|
B|-------------------------------------------|
G|--9--11-12-11--9----9--11-12-11--9--7------|
D|--x--x---x--x--x----x--x---x--x--x--x------|
A|--7--9--10--9--7----7--9--10--9--7--5------|
E|-------------------------------------------|


E|-------------------------------------------|
B|-------------------------------------------|
G|--9--11-12-11--9----9--11-12-11--9--7--9---|
D|--x--x---x--x--x----x--x---x--x--x--x--x---|
A|--7--9--10--9--7----7--9--10--9--7--5--7---|
E|-------------------------------------------|


E|-------------------------------------------|
B|-------------------------------------------|
G|--11-13-14-13-11---11--13-14-13-11--9------|
D|--x---x--x--x--x----x---x--x--x--x--x------|
A|--9--11-12-11--9----9--11-12-11--9--7------|
E|-------------------------------------------|


E|----------------------------------------------|
B|----------------------------------------------|
G|--11-13-14-13-11---11--13-14-13-11--9--7--9---|
D|--x---x--x--x--x----x---x--x--x--x--x--x--x---|
A|--9--11-12-11--9----9--11-12-11--9--7--5--7---|
E|----------------------------------------------|


E|----------------------------------------------|
B|--10-9-10------10---10---10----10---10---10---|
G|----------9-10----9----7----------------------|
D|----------------------------10----9----7------|
A|----------------------------------------------|
E|----------------------------------------------|


E|--------------------------------------|
B|--------------------------------------|
G|--------------5-----5-7---5-7-9-10----|
D|--6-7-9-6-7-9---7-9-----9-------------|
A|--------------------------------------|
E|--------------------------------------|


E|-------------------------------------|
B|-------------------------------------|
G|--9-8-9------9---9---9----9---9---9--|
D|--------9-10---9---7-----------------|
A|-----------------------10---9---7----|
E|-------------------------------------|


E|-------------------------------------|
B|--------------------------------7----|
G|------------------------5---6-8------|
D|--------------5-----5-7---9----------|
A|--6-7-9-6-7-9---7-9------------------|
E|-------------------------------------|

          Play these notes 3 times each (tremelo picking)
E|--------------------------------------------------|
B|--13-12-10----------------------------------------|
G|-----------12-10----------------------------------|
D|-----------------13-11-10--13-11-9----------9-11--|
A|-----------------------------------13-11-13-------|
E|--------------------------------------------------|


E|------------------------------------------|
B|------------------------------------------|
G|------------------------------------------|
D|-----------9-x-x-x-x-x-x-x-x-x-x-x-x-x-x--|
A|-----------9-x-x-x-x-x-x-x-x-x-x-x-x-x-x--|
E|--(7)6(7)--7-x-x-x-x-x-x-x-x-x-x-x-x-x-x--|


E|---------------------------------------------|
B|---------------------------------------------|
G|---------------------------------------------|
D|-------------12-x-x-x-x-x-x-x-x-x-x-x-x-x-x--|
A|-------------12-x-x-x-x-x-x-x-x-x-x-x-x-x-x--|
E|--(10)9(10)--10-x-x-x-x-x-x-x-x-x-x-x-x-x-x--|


E|------------------------------7-6-------------------------------------------14-16-18--|
B|----------------------7---7-9-----10-9-10--12-10-12--14-12-14--16-14-16--17-----------|
G|------------6-8-6-8-9---9-------------------------------------------------------------|
D|--6-8-9-8-9---------------------------------------------------------------------------|
A|--------------------------------------------------------------------------------------|
E|--------------------------------------------------------------------------------------|


E|--19-16-----------17-14-----------|
B|--------16--------------14--------|
G|-----------16-18-----------14-----|
D|------------------------------16--|
A|----------------------------------|
E|----------------------------------|

              
E|--------------------------------------------|
B|--9--7--9-11--12-14--16--14-12--9-12--11-7--|
G|--x--x--x--x--x---x---x---x--x--x--x--x--x--|
D|--6--4--6--8--9--11--13--11--9--6--9--8--4--|
A|--------------------------------------------|
E|--------------------------------------------|



E|-----------------------------------------|
B|--9--7--9-11--12-14--16--14-12--9--7--9--|
G|--x--x--x--x--x---x---x---x--x--x--x--x--|
D|--6--4--6--8--9--11--13--11--9--6--4--6--|
A|-----------------------------------------|
E|-----------------------------------------|


E|--7--5--7--9--10-12-14--12-10-7--10-9------------|
B|--x--x--x--x--x--x--x---x--x--x--x--x--10-7--10--|
G|--4--2--4--6--7--9--11--9--7--4--7--6--x--x--x---|
D|---------------------------------------7--4--7---|
A|-------------------------------------------------|
E|-------------------------------------------------|


E|---10-8-7----------7------------------------------------|
B|----------10--8-10---8-10-------------------------------|
G|----------------------------------------12--17--16--14--|
D|----------------------------12--14--15--12--17--16--14--|
A|----------------------------12--14--15--10--15--14--12--|
E|----------------------------10--12--13------------------|

Let last chord ring.


Whew.. done!

Please rate well, it took me a while:P


            
            
Suggest correction
Creating personal tab
Creating personal tab
You can edit any tab online and save it as your Personal.

You can edit, replace or remove any tab part or add personal notes – all changes will be seen only by you.

Personal tabs can be accessed anytime from any device, even offline.
Learn more »
comments
print report bad tab
guest
You may want to rate the tab now too:
select rating
Wanna post a correction for this tab? Suggest correction