Oops, an error
Loading. Please wait.

Final Fantasy X - To Zanarkand Opening Theme tab

31,598 views 18 this week
2 commentsread comments
1 2 3 4 5
2 more votes to show rating
add to favorites
×
Save as Personal and add changes to this tab that will be seen only by you. Learn more ›
×
You can save this tab as Personal to edit and correct it or add notes. All changes will be seen only by you. Learn more »
launch autoscroll
font size
0
reset
how to read this tab
guitar tuner
edit
Autoscroll
slow
fast
+/-
esc
set tempo
stop
Author
-------------------------------------------------------------------------------
                             To Zanarkand - Nobuo Uematsu
-------------------------------------------------------------------------------
Tabbed by: Taylor
Email: ff7_advent_kadaj@hotmail.com

Tuning: EADGBe


| /  slide up
| \  slide down
| h  hammer-on
| p  pull-off
| ~  vibrato
| +  harmonic
| x  Mute note
===============================================================================


e|-0--------0-2-3~-||-----------------|
B|--------0---3-1~-||-3--------3-5-7~-|
G|------0----------||--------2---5-4~-|
D|----2------------||----0-4----------|
A|-----------------||-----------------|
E|-----------------||-----------------|

e|-------------------||-------------------|
B|-0--0--0------3----||-5--5--5--3---8----|
G|----------2-----0~-||----------------5~-|
D|-------------------||-------------------|
A|-------------------||-------------------|
E|-------------------||-------------------|

e|-------------1---1-3-5-8-|
B|-----------1---1---------|
G|-------0-2---------------|
D|-----3-------------------|
A|---3---------------------|
E|-1-----------------------|

e|-0--------------------------||-0---------------------------|
B|-5----5-7-8--7-5-3--5-3-1-0-||-5----5-7-8--7-8-10--8-10-12-|
G|----4-----------------------||----4------------------------|
D|----------------------------||-----------------------------|
A|----------------------------||-----------------------------|
E|----------------------------||-----------------------------|

e|-0--------------------------|
B|-5----5-7-8--7-5-3--5-3-1-0-|
G|----4-----------------------|
D|----------------------------|
A|----------------------------|
E|----------------------------|

E|-----------------||-------------------0-------0--3-5-|
B|-----0-0-0---3---||----------------------------------|
G|-0-2-------2---0-||-0---------------5-------5--------|
D|-----------------||---4-0-2-5---2-5-----2-5----------|
A|-----------------||-----------3----------------------|
E|-----------------||----------------------------------|

e|-12--12--10-8-7--15-15-7--14-14-5--12-12-11-|
B|-----10-------------------------------------|
G|--------------------------------------------|
D|--------------------------------------------|
A|--------------------------------------------|
E|--------------------------------------------|

e|---------2---0-----------5--5--4~--|
B|---------0---0--------------2--5~--|
G|-----4-----------7---6~------------|
D|-4---4-----------4---2~------------|
A|-2---------------------------------|
E|-----------------------------------|

e|-------2----------|
B|-5-2-0----------7-|
G|---------2------8-|
D|-----------4\7--9-|
A|------------------|
E|------------------|

            
            
Suggest correction
Creating personal tab
Creating personal tab
You can edit any tab online and save it as your Personal.

You can edit, replace or remove any tab part or add personal notes – all changes will be seen only by you.

Personal tabs can be accessed anytime from any device, even offline.
Learn more »
Give kudos to tab author, rate the tab!
1 2 3 4 5
comments
print report bad tab
2 comments total.
0 reply
PJGJ210 10 Jan 06, 2009 02:19 PM

e|-0--------------------------|
B|-5----5-7-8--7-5-3--5-3-1-0-|
G|----4-----------------------|
D|----------------------------|
A|----------------------------|
E|----------------------------|

on this verse i think the end should be like this

e|-0----------------------0-----|
B|-5----5-7-8--7-5-3--5-3---5-0-|
G|----4-------------------------|
D|------------------------------|
A|------------------------------|
E|------------------------------|

0 reply
Paine567 10 Sep 27, 2009 07:23 PM

this is an awesome song!!!!

guest
You may want to rate the tab now too:
select rating
Wanna post a correction for this tab? Suggest correction