Oops, an error
Loading. Please wait.

Vamo Alla Flamenco tab

version 1
version 1

Whole song

Interactive

55,089 views 102 this week
1 commentread comment
1 2 3 4 5
x 10
add to favorites
×
Save as Personal and add changes to this tab that will be seen only by you. Learn more ›
×
You can save this tab as Personal to edit and correct it or add notes. All changes will be seen only by you. Learn more »
launch autoscroll
font size
0
reset
how to read this tab
guitar tuner
edit
Autoscroll
slow
fast
+/-
esc
set tempo
stop
Author
Unregistered
Vamo alla Flamenco


                                                                   Nobuo Uematsu
Spur 1

     Am                  Amadd13-            Am6
     ^                   ^                   ^
                                                          |--3--|

      W                   W                   H.           E  E  E
e|--0----------------|--1----------------|--2---------------------|
B|--1----------------|--1----------------|--1---------------------|
G|--2----------------|--2----------------|--2------------4--5--7--|
D|--2----------------|--2----------------|--2---------------------|
A|--0----------------|--0----------------|--0---------------------|
E|-------------------|-------------------|------------------------|


  Am                       Am                   Em
  ^                        ^                    ^
               |--3--|                                       |---3--|

    H.           E  E  E     H.           Q       H.           E   E  E
e|------------------------|--5------------8----|--7------------7---------|
B|--5------------5--6--8--|--5-----------------|--8---------------10--8--|
G|--5---------------------|--5-----------------|--9----------------------|
D|------------------------|--------------------|-------------------------|
A|--0---------------------|--0-----------------|--7----------------------|
E|------------------------|--------------------|-------------------------|


  Dm                   E
  ^                    ^
                              |-3-|                      |--3--|  |--3--|

    H        H           Q.     S S S H           H        E  E  E  E  E  E
e|--------------------|--0------1-0---0--------|-----------------------------|
B|--6--------8--------|--0----------3----------|-----------------------------|
G|--7-----------------|--1---------------------|-----------------------------|
D|--7-----------------|------------------------|-----------2-----------------|
A|--5-----------------|------------------------|--------------0--3-----2--1--|
E|--------------------|--0---------------------|--------------------0--------|


  |--3--|  |--3--|  |--3--|  |--3--|     |--3--|  |--3--|  |--3--|

    E  E  E  E  E  E  E  E  E  E  E  E     E  E  E  E  E  E  E  E  E  Q
e|--------------------------------------|----------------------------------|
B|-----------1--0-----0-----------------|-----------1--0-----3-----0-------|
G|--2--1--2--------2--------1--------1--|--2--1--2--------2-----------0----|
D|-----------------------------2--4-----|----------------------------------|
A|--0--------0--------------------------|--0--------0----------------------|
E|--------------------0--------0--------|--------------------3--------3----|


  |--3--|  |--3--|  |--3--|  |--3--|     |--3--|  |--3--|  |--3--|

    E  E  E  E  E  E  E  E  E  E  E  E     E  E  E  E  E  E  E  E  E  Q
e|-----------0--------------------------|----------------------------------|
B|--1--0--1-----3--1--3-----0--------0--|--1-----0--L----------------------|
G|-----------------------------0--2-----|--------------2--1--2-------------|
D|--------------------------------------|-----------------------2----------|
A|--3--------3--------------------------|--------------------0-----3--0----|
E|--------------------3--------3--------|--1--------0----------------------|


    |--3--|  |--3--|  |--3--|  |--3--|

     E  E  E  E  E  E  E  E  E  E  E  E
e|---5--4--5--8--7--5--7-----4--------4--|
B|------------------------------5--7-----|
G|*--------------------------------------|
D|*--------------------------------------|
A|---0--------0--------------------------|
E|---------------------0--------0--------|


  |--3--|  |--3--|   |--3--|  |--3--|

    E  E  E  E  E  E   E  E  E  E  E  E
e|--5--4--5--8--7--5--10-----7-----------|
B|------------------------------8--------|
G|---------------------0--------0--------|
D|---------------------------------7--9--|
A|--0--------0---------------------------|
E|---------------------------------------|


  |--3--|   |---3--|   |--3--|  |---3--|     |--3--|  |--3--|  |--3--|

    E  E  E   E   E  E   E  E  E  E   E  E     E  E  E  E  E  E  E  E  E  Q
e|--8--7--8--12--10--8--10-----7---------7--|--8-----7--7--5--4--5-------------|
B|--------------------------------8--10-----|--8--------------------5----------|
G|-----------------------0--------0---------|--------------------------5-------|
D|------------------------------------------|--7--------------------------7----|
A|------------------------------------------|--8-----------------0-------------|
E|--0---------0-----------------------------|-----------0----------------------|


  Am
  v  v ^ v     v
  |-3| |3|  |--3--|  |--3--|  |--3--|

    E  S S E  E  E  E  E  E  E  E  E  E
e|--0--0-0-0--5--0--5--4--2--4--5-----5--|
B|--1--1-1-1-----1-----------------------|
G|--2--2-2-2-----2-----------------------|
D|--2--2-2-2-----2-----------------------|
A|--0--0-0-0-----0--------------0--------|
E|---------------------0-----------------|


  |---3--|   |---3--|  |--3--|   |---3--|

    E   E  E   E  E   E  E  E  E   E  E   E
e|--7------7------7--------------------------|
B|-----10-----10-----10--9--7--9--10-----10--|
G|-------------------------------------------|
D|-------------------------------------------|
A|--7----------8---------7---------0---------|
E|-------------------------------------------|


  Am
  v  ^ v v     v
  |-3| |3|  |--3--|  |--3--|  |--3--|

    E  S S E  E  E  E  E  E  E  E  E  E
e|--0--0-0-0--5--0--5--4--2--4--5-----5--|
B|--1--1-1-1-----1-----------------------|
G|--2--2-2-2-----2-----------------------|
D|--2--2-2-2-----2-----------------------|
A|--0--0-0-0-----0--------------0--------|
E|---------------------0-----------------|


                     E
                     v  v ^ v  v  v  v
   |--3--|  |--3--|  |-3| |3|  |--3--|

     E  E  E  E  E  E  E  S S E  E  E  E
e|--10--8--7--5--7--5--4--4-4-4--4--4--4--|
B|---------------------5--5-5-5--5--5--5--|
G|---------------------4--4-4-4--4--4--4--|
D|---0-----------------6--6-6-6--6--6--6--|
A|------------6---------------------------|
E|---------------------0------------------|


  Em                  Em9-
  v  v ^ v  v  v  v   v    v  ^  v   v   v   v
  |-3| |3|  |--3--|   |--3-|  |--|   |---3---|

    E  S S E  E  E  E   E    S  S  E   E   E   E
e|--7--7-7-7--7--7--7--10---10-10-10--10--10--10--|
B|--9--9-9-9--9--9--9---9----9--9--9---9---9---9--|
G|--9--9-9-9--9--9--9--10---10-10-10--10--10--10--|
D|--9--9-9-9--9--9--9---9----9--9--9---9---9---9--|
A|------------------------------------------------|
E|--0-------------------0-------------------------|


   E9-
   v   v  ^  v   v   v   v
   |-3-|  |--|   |---3---|                |--3--|  |--3--|  |--3--|  |--3--|

     E   S  S  E   E   E   E  H             E  E  E  E  E  E  E  E  E  E  E  E
e|--13--13-13-13--13--13--13------------||--------------------------------------|
B|--12--12-12-12--12--12--12------------||-----------1--0-----0-----------------|
G|--13--13-13-13--13--13--13-----------*||--2--1--2--------2--------1--------1--|
D|--12--12-12-12--12--12--12-----------*||-----------------------------2--4-----|
A|--------------------------------------||--0--------0--------------------------|
E|---0----------------------------------||--------------------0--------0--------|


  |--3--|  |--3--|  |--3--|          |--3--|  |--3--|  |--3--|  |--3--|

    E  E  E  E  E  E  E  E  E  Q       E  E  E  E  E  E  E  E  E  E  E  E
e|----------------------------------|-----------0--------------------------|
B|-----------1--0-----3-----0-------|--1--0--1-----3--1--3-----0--------0--|
G|--2--1--2--------2-----------0----|-----------------------------0--2-----|
D|----------------------------------|--------------------------------------|
A|--0--------0----------------------|--3--------3--------------------------|
E|--------------------3--------3----|--------------------3--------3--------|


  |--3--|  |--3--|  |--3--|          |-3| |3|  |--3--|  |--3--|  |--3--|

    E  E  E  E  E  E  E  E  E  Q       E  S S E  E  E  E  E  E  E  E  E  E
e|--------------------------0--5----|---------0--5--4--3--1--0--1-----0--1--|
B|--1-----0--L-----------1----------|-------2----------------------3--------|
G|--------------2--1--2-------------|-----2---------------------------------|
D|----------------------------------|---------------------0-----------------|
A|--------------------0-------------|--0------------------------------------|
E|--1--------0----------------------|---------------------------------------|


  v                 v
  |--3--|  |--3--|  |--3--|  |--3--|     |-3| |3|  |--3--|  |--3--|  |--3--|

    E  E  E  E  E  E  E  E  E  E  E  E     E  S S E  E  E  E  E  E  E  E  E  E
e|--0--------------0--------------------|---------0--5--4--3--1--0--1-----0--1--|
B|--1--------1--3-----3-----------1--3--|-------2----------------------3--------|
G|--2-----------------3--------3--------|-----2---------------------------------|
D|--2-----2-----------3-----3-----------|---------------------0-----------------|
A|--0-----------------1-----------------|--0------------------------------------|
E|--------------------------------------|---------------------------------------|


  v
  |--3--|  |--3--|   |---3--|  |--3--|

    E  E  E  E  E  E   E  E   E  E  E  E
e|--3-----0----------------------8--7--5--|
B|--1--------5--6--8--10--8--10-----------|
G|--0-------------------------------------|
D|--2-------------------------------------|
A|--3------------------8------------------|
E|----------------------------------------|


  E7 E               E
  v  v ^ v  v  v  v  v  v ^ v  v  v  v
  |-3| |3|  |--3--|  |-3| |3|  |--3--|

    E  S S E  E  E  E  E  S S E  E  E  E
e|--4--0-0-0--0--0--0--0--0-0-0--0--0--0--|
B|--5--0-0-0--0--0--0--0--0-0-0--0--0--0--|
G|--4--1-1-1--1--1--1--2--2-2-2--2--2--2--|
D|--6--2-2-2--2--2--2--3--3-3-3--3--3--3--|
A|--5--2-2-2--2--2--2--3--3-3-3--3--3--3--|
E|--0------------------0------------------|


  G         F        E
  v  v ^ v  v  v  v  v  v ^ v  v  v  v
  |-3| |3|  |--3--|  |-3| |3|  |--3--|     |--3--|  |--3--|  |--3--|  |--3--|

    E  S S E  E  E  E  E  S S E  E  E  E     E  E  E  E  E  E  E  E  E  E  E  E
e|--3--3-3-3--1--1--1--0--0-0-0--0--0--0--|--------------------------------------|
B|--3--3-3-3--1--1--1--0--0-0-0--0--0--0--|--3--0--------------------------------|
G|--4--4-4-4--2--2--2--1--1-1-1--1--1--1--|--------1-----------------------------|
D|--5--5-5-5--3--3--3--2--2-2-2--2--2--2--|-----------3--2--0--------------------|
A|--5--5-5-5--3--3--3--2--2-2-2--2--2--2--|--------------------3--2--0-----------|
E|--3------------------0------------------|-----------------------------4--1--0--|


    E  E  E  E  E  E  E  E      Q.      T  T  T  H        T
e|-----------------0--4--7--|--12------13-12-10-12----------|
B|--------------0-----------|-------------------------------|
G|-----------1--------------|-------------------------------|
D|--------2-----------------|-------------------------------|
A|-----2--------------------|-------------------------------|
E|--0-----------------------|-------------------------------|


     T  T  T  T  T  T  T  T  T  T  T  T  T  T  T  T  T  T  T  T  T  T  T  T  Q
e|--13-12-10-12-13-12-10-12-13-12-10-12-13-12-10-13-12-10-13-12-10-13-12-10-12----|
B|--------------------------------------------------------------------------------|
G|--------------------------------------------------------------------------------|
D|--------------------------------------------------------------------------------|
A|--------------------------------------------------------------------------------|
E|--------------------------------------------------------------------------------|


   |--3--| |--3-| |-3-| |-3-| |-3-| |-3-|

     S  S  S S  S S S S S S S S S S S S S S Q       E  E  E  E  E  E  Q
e|--10-12-10-9-10-9-7-9-7-5-7-5-3-5-3-1-3-1-0----|-----------------0--L----|
B|-----------------------------------------------|--------------0----------|
G|-----------------------------------------------|-----------1-------------|
D|-----------------------------------------------|--------2----------------|
A|-----------------------------------------------|-----2-------------------|
E|-----------------------------------------------|--0----------------------|


    S S S S S S S S S S S S S S S S    S S E  E  E  E  E  Q
e|----------------------------------|---------------------0----|
B|----------------------------------|------------------0-------|
G|----------------------------------|---------------1----------|
D|--------0-2-3-0-2---0-------------|------------2-------------|
A|--0-2-3-----------3---2-3-0-2---0-|---------2----------------|
E|------------------------------3---|--1-3-0-------------------|


    S S S S S S S S S S S S S S S S    S S E  E  E  E  E  Q
e|----------0-1---0-----------------|---------------------0----|
B|----0-1-3-----3---1-3-0-1---0-----|------------------0-------|
G|--2-------0-L-------------2---0-2-|----0----------1----------|
D|--3-L-2-L-----3-L-2-L-0-L---------|--3---------2-------------|
A|--------------------------3-L-2-L-|--0-L----2----------------|
E|----------------------------------|------0-------------------|


         ^     ^

    Q    E  E  H           E  E  E  E  E   S S S  S E
e|--1----3--5--8--------|-----7-----8--7-----7-8-10-8--|
B|-------1-----6--------|-----6-----------10-----------|
G|-------2-----5--------|-----7------------------------|
D|-------3-----7--------|--0---------------------------|
A|----------------------|------------------------------|
E|--1-------------------|------------------------------|


                                                            G6
                                                            ^

    S  S S S  S S S S  S S E  S S S S    S S S S E  E  Q    Q
e|--7----7-8-10-8-7-8----7------------|---------------------0-----|
B|----10--------------10---8--6-5-6-8-|--6------------------0-----|
G|------------------------------------|----5----------------7-----|
D|------------------------------------|------7-5-3----------5-----|
A|------------------------------------|-------------3--7----7-----|
E|------------------------------------|---------------------0~----|


                      ^              ^
                      |----3----|    |----3----|

    W                   Q    Q    Q    Q    Q    Q
e|--L----------------|--5----4----5----8----7----5----|
B|--L----------------|--5--------------5--------------|
G|--L----------------|--5--------------5--------------|
D|--L----------------|--------------------------------|
A|--L----------------|--0--------------0--------------|
E|--L----------------|--------------------------------|


  ^             ^                 ^              ^
  |----3---|    |----3----|       |----3----|    |----3----|

    H        Q    Q    Q    Q       Q    Q    Q    Q    Q    Q
e|--7--------4--------------4----|--5----4----5----8----7----5----|
B|--5-------------5----7---------|--5--------------5--------------|
G|--4-------------4--------------|--5--------------5--------------|
D|-------------------------------|--------------------------------|
A|-------------------------------|--0--------------0--------------|
E|--0-------------0--------------|--------------------------------|


  ^             ^
  |----3---|    |----3----|                 |--3--|  |--3--|

    H        Q    Q    Q    Q       Q    Q    E  E  E  E  E  E
e|--7--------4--------------4----|------------------------------|
B|--5-------------5----7---------|------------------------------|
G|--4-------------4--------------|------------------------------|
D|-------------------------------|------------2-----------------|
A|-------------------------------|---------------0--3-----2--1--|
E|--0-------------0--------------|---------------------0--------|


    |--3--|  |--3--|  |--3--|  |--3--|     |--3--|  |--3--|  |--3--|

     E  E  E  E  E  E  E  E  E  E  E  E     E  E  E  E  E  E  E  E  E  Q
e|---------------------------------------|----------------------------------|
B|------------1--0-----0-----------------|-----------1--0-----3-----0-------|
G|*--2--1--2--------2--------1--------1--|--2--1--2--------2-----------0----|
D|*-----------------------------2--4-----|----------------------------------|
A|---0--------0--------------------------|--0--------0----------------------|
E|---------------------0--------0--------|--------------------3--------3----|


  |--3--|  |--3--|  |--3--|  |--3--|     |--3--|  |--3--|  |--3--|

    E  E  E  E  E  E  E  E  E  E  E  E     E  E  E  E  E  E  E  E  E  Q
e|-----------0--------------------------|----------------------------------|
B|--1--0--1-----3--1--3-----0--------0--|--1-----0--L----------------------|
G|-----------------------------0--2-----|--------------2--1--2-------------|
D|--------------------------------------|-----------------------2----------|
A|--3--------3--------------------------|--------------------0-----3--0----|
E|--------------------3--------3--------|--1--------0----------------------|


  |--3--|  |--3--|  |--3--|  |--3--|     |--3--|  |--3--|   |--3--|  |--3--|

    E  E  E  E  E  E  E  E  E  E  E  E     E  E  E  E  E  E   E  E  E  E  E  E
e|--5--4--5--8--7--5--7-----4--------4--|--5--4--5--8--7--5--10-----7-----------|
B|-----------------------------5--7-----|------------------------------8--------|
G|--------------------------------------|---------------------0--------0--------|
D|--------------------------------------|---------------------------------7--9--|
A|--0--------0--------------------------|--0--------0---------------------------|
E|--------------------0--------0--------|---------------------------------------|


  |--3--|   |---3--|   |--3--|  |---3--|     |--3--|  |--3--|  |--3--|

    E  E  E   E   E  E   E  E  E  E   E  E     E  E  E  E  E  E  E  E  E  Q
e|--8--7--8--12--10--8--10-----7---------7--|--8-----7--7--5--4--5-------------|
B|--------------------------------8--10-----|--8--------------------5----------|
G|-----------------------0--------0---------|--------------------------5-------|
D|------------------------------------------|--7--------------------------7----|
A|------------------------------------------|--8-----------------0-------------|
E|--0---------0-----------------------------|-----------0----------------------|


                                          v                 v
  |-3| |3|  |--3--|  |--3--|  |--3--|     |--3--|  |--3--|  |--3--|  |--3--|

    E  S S E  E  E  E  E  E  E  E  E  E     E  E  E  E  E  E  E  E  E  E  E  E
e|---------0--5--4--3--1--0--1-----0--1--|--0--------------0--------------------|
B|-------2----------------------3--------|--1--------1--3-----3-----------1--3--|
G|-----2---------------------------------|--2-----------------3--------3--------|
D|---------------------0-----------------|--2-----2-----------3-----3-----------|
A|--0------------------------------------|--0-----------------1-----------------|
E|---------------------------------------|--------------------------------------|


  |-3| |3|  |--3--|  |--3--|  |--3--|

    E  S S E  E  E  E  E  E  E  E  E  E
e|---------0--5--4--3--1--0--1-----0--1--|
B|-------2----------------------3--------|
G|-----2---------------------------------|
D|---------------------0-----------------|
A|--0------------------------------------|
E|---------------------------------------|


  v
  |--3--|  |--3--|   |---3--|  |--3--|

    E  E  E  E  E  E   E  E   E  E  E  E
e|--3-----0----------------------8--7--5--|
B|--1--------5--6--8--10--8--10-----------|
G|--0-------------------------------------|
D|--2-------------------------------------|
A|--3------------------8------------------|
E|----------------------------------------|


  E7 E               E
  v  v ^ v  v  v  v  v  v ^ v  v  v  v
  |-3| |3|  |--3--|  |-3| |3|  |--3--|
  E  S S E  E  E  E  E  S S E  E  E  E
--4--0-0-0--0--0--0--0--0-0-0--0--0--0--|
--5--0-0-0--0--0--0--0--0-0-0--0--0--0--|
--4--1-1-1--1--1--1--2--2-2-2--2--2--2--|
--6--2-2-2--2--2--2--3--3-3-3--3--3--3--|
--5--2-2-2--2--2--2--3--3-3-3--3--3--3--|
--0------------------0------------------|


  G                  E
  v  v ^ v  v  v  v  v  v ^ v  v  v  v
  |-3| |3|  |--3--|  |-3| |3|  |--3--|

    E  S S E  E  E  E  E  S S E  E  E  E
e|--3--3-3-3--1--1--1--0--0-0-0--0--0--0--|
B|--3--3-3-3--1--1--1--0--0-0-0--0--0--0--|
G|--4--4-4-4--2--2--2--1--1-1-1--1--1--1--|
D|--5--5-5-5--3--3--3--2--2-2-2--2--2--2--|
A|--5--5-5-5--3--3--3--2--2-2-2--2--2--2--|
E|--3------------------0------------------|


  E7 E               E
  v  v ^ v  v  v  v  v  v ^ v  v  v  v
  |-3| |3|  |--3--|  |-3| |3|  |--3--|

    E  S S E  E  E  E  E  S S E  E  E  E
e|--4--0-0-0--0--0--0--0--0-0-0--0--0--0--|
B|--5--0-0-0--0--0--0--0--0-0-0--0--0--0--|
G|--4--1-1-1--1--1--1--2--2-2-2--2--2--2--|
D|--6--2-2-2--2--2--2--3--3-3-3--3--3--3--|
A|--5--2-2-2--2--2--2--3--3-3-3--3--3--3--|
E|--0------------------0------------------|


  G                  E
  v  v ^ v  v  v  v  v  v ^ v  v  v  v
  |-3| |3|  |--3--|  |-3| |3|  |--3--|

    E  S S E  E  E  E  E  S S E  E  E  E
e|--3--3-3-3--1--1--1--0--0-0-0--0--0--0---||
B|--3--3-3-3--1--1--1--0--0-0-0--0--0--0---||
G|--4--4-4-4--2--2--2--1--1-1-1--1--1--1--*||
D|--5--5-5-5--3--3--3--2--2-2-2--2--2--2--*||
A|--5--5-5-5--3--3--3--2--2-2-2--2--2--2---||
E|--3------------------0-------------------||


                    Am
                    v  v ^ v  v  v  v
  |--3--|  |--3--|  |-3| |3|  |--3--|

    E  E  E  E  E  E  E  S S E  E  E  E
e|--8-----7--7--5--4--5--5-5-5--5--5--5--|
B|--8-----------------5--5-5-5--5--5--5--|
G|--------------------5--5-5-5--5--5--5--|
D|--7-----------------7--7-7-7--7--7--7--|
A|--8-----------------0---------0--------|
E|-----------0---------------------------|


  G                  F                     G  F  E  G  F  E       E7
  v  v ^ v  v  v  v  v  v ^ v  v  v  v     v  v  v  v  v  v  v    ^
  |-3| |3|  |--3--|  |-3| |3|  |--3--|     |--3--|  |--3--|

    E  S S E  E  E  E  E  S S E  E  E  E     E  E  E  E  E  E  Q    E.  S
e|--3--3-3-3--3--3--3--1--1-1-1--1--1--1--|--3--1--0--3--1--0--L----4-----|
B|--3--3-3-3--3--3--3--1--1-1-1--1--1--1--|--3--1--0--3--1--0--L----3-----|
G|--4--4-4-4--4--4--4--2--2-2-2--2--2--2--|--4--2--1--4--2--1--L----4-----|
D|--5--5-5-5--5--5--5--3--3-3-3--3--3--3--|--5--3--2--5--3--2--L----2-----|
A|--5--5-5-5--5--5--5--3--3-3-3--3--3--3--|--5--3--2--5--3--2--L----2-----|
E|--3---------3--------1---------1--------|--3--1--0--3--1--0--L----0-----|


    Am
    TP           ^

    H.           Q
e|--5------------5----||
B|--5------------5----||
G|--5------------5----||
D|--7------------7----||
A|--7------------7----||
E|--5------------5----||



************************************

| ~  Vibrato 

************************************

            
            
Suggest correction
Creating personal tab
Creating personal tab
You can edit any tab online and save it as your Personal.

You can edit, replace or remove any tab part or add personal notes – all changes will be seen only by you.

Personal tabs can be accessed anytime from any device, even offline.
Learn more »
comments
print report bad tab
1 comment total.
0 reply
Bankai90 10 Mar 05, 2013 03:05 AM

This is awesome!!! Thank you for that!!

guest
Wanna post a correction for this tab? Suggest correction