Oops, an error
Loading. Please wait.

Lock All The Doors chords

version 3
version 3

Whole song

2,437 views 6 this week
no commentswrite comment
1 2 3 4 5
x 4
add to favorites
×
Save as Personal and add changes to this tab that will be seen only by you. Learn more ›
×
You can save this tab as Personal to edit and correct it or add notes. All changes will be seen only by you. Learn more »
launch autoscroll
font size
0
reset
transpose
0
reset
display chords
guitar tuner
edit
Autoscroll
slow
fast
+/-
esc
set tempo
stop
Strumming
There is no strumming pattern for this song yet. and get +5 IQ
(Standard Tuning) (Capo 1) (Please Comment or Rate !,,!) 

Intro: Bm | D | A x4 

Verse 1
           Bm          D    A
She wore a star-shaped tamb-ourine,

    Bm                   D    A
The prettiest girl I had ever seen

    Bm                D      A      Bm   D  A
Was standing lost and lonely on the shore

Verse 2:
        Bm           D     A
I tried to catch her every-night,

        Bm                D      A
dancing on her own in the candle-light

    Bm              D         A     Bm
But I can't seem to reach her anymore

Chorus:

D                 Bm
Lock all the doors!

A
Maybe they'll never find us

G                                      D   
I can be sure, like never before, this time

D                    Bm
Get down on the floor!

A
Turn all the lights off inside

G                                      D
I can be sure, like never before, this time

G             D
You know it's mine

G             D     
You know it's mine

Bm | D | A x2

Verse 3:
          Bm       D      A
She never hears me when I speak

  Bm                       D     A
I gotta find out where the magic sleeps

    Bm             D     A        Bm
And I can feel you under-neath my skin

Verse 4:
          Bm        D    A
And if we take our, love inside

        Bm                      D     A
Cause I don't wanna sail on the ocean wide

         Bm          D       A        Bm
Cause we might never live to meet again

Chorus:

D                 Bm
Lock all the doors!

A
Maybe they'll never find us

G                                        D   
I could be sure, like never before, this time

D                    Bm
Get down on the floor!

A
Turn all the lights off inside

G                                        D
I could be sure, like never before, this time

G             D
You know it's mine

G             D     
You know it's mine

Solo:

G | D | Am | Bm | G | Am | Bm | F | G 

E|------------------------------------------------------------------|
B|----------------------------------13------------------------------|
G|------------------10------------------12--10----------------------|
D|--12--12--10--12------12--10--12--------------12--10--12--12--12--|
A|------------------------------------------------------------------|
E|------------------------------------------------------------------|

E|------------------------------------------------------------------|
B|----------------------------------13------------------------------|
G|------------------10------------------12--10----------------------|
D|--12--12--10--12------12--10--12--------------12--10--12--12--12--|
A|------------------------------------------------------------------|
E|------------------------------------------------------------------|

E|-----------------------------------------------------------------------|
B|-----------------------------------------------------------------------|
G|-----------------------------------------------------------------------|
D|--12-12-12-12-12/14-14-14-14-14/15-15-15-15-15/17-17-17-17/22-22-22-22-|
A|-----------------------------------------------------------------------|
E|-----------------------------------------------------------------------|

Chorus:

D                 Bm
Lock all the doors!

A
Maybe they'll never find us

G                                        D   
I could be sure, like never before, this time

D                    Bm
Get down on the floor!

A
Turn all the lights off inside

G                                        D
I could be sure, like never before, this time

G               D
  You know it's mine

G               D     
  You know it's mine ...

            
            
Suggest correction
Creating personal tab
Creating personal tab
You can edit any tab online and save it as your Personal.

You can edit, replace or remove any tab part or add personal notes – all changes will be seen only by you.

Personal tabs can be accessed anytime from any device, even offline.
Learn more »
comments
print report bad tab
guest
You may want to rate the tab now too:
select rating
Wanna post a correction for this tab? Suggest correction