Oops, an error
Loading. Please wait.

Te Perdono tab

38 views 1 this week
no commentswrite comment
1 2 3 4 5
3 more votes to show rating
add to favorites
×
Save as Personal and add changes to this tab that will be seen only by you. Learn more ›
×
You can save this tab as Personal to edit and correct it or add notes. All changes will be seen only by you. Learn more »
launch autoscroll
font size
0
reset
how to read this tab
guitar tuner
edit
Autoscroll
slow
fast
+/-
esc
set tempo
stop
  Te perdono                                    

               Noel Nicola  


Fig (2V)

D                         Dm
Te perdono el monton de palabras
           D7                      
Que haz soplado en mi oido 
            A7
Desde que te conosco

D                           Dm
Te perdono tus fotos y tus cartas
               D7
Tus comidas afuera
              A7
Cervezas y cigarros

Es mas.......

D                        Dm
Te perdono andar como tu andas
                D7         __________Desde aquí cambia a rasgueo
Tus zapatos de nube       /
                A7       D  Dm
Tus dientes y tu pelo
       G                 Bm      
Te perdono los cientos de razooones
              F#m
Los miles de probleeeemas
    G Gm   
En fin... 


te perdono


     D   D7
No amarme, 


                 G
lo que no te perdono
              D
es haberme besado
                 F#m     G  Gm
con tanta alevosiaaaaaaaaa...
        D
tengo testigos
Em                A7      
un perro la madrugada
     D     D7
el frio
        G                  D
pero eso si que no te lo perdono
              Em
pues si te lo perdono 
       A7               Fig.
seguro que te olvido


                                                 Fig.


E-----0--2-------2-----2-------5-3-1-0-----2------2-----2----
B--3--------2----3-----3---------------3---------1-----1-----
G-------------------3-----3--------------------2-----2-----2-
D--------0---------------------------------0-----------------
A------------------------------------------------------------
E------------------------------------------------------------


E--5-3-1-0----1-----1------1-------1-0--------0-----0-----0------------0--5----
B---------3---------3------3-----------3-2-0--------2-----2----------2---------
G----------------2------2------2-----------------0-----2-----2-----0-----------
D-------------0-------------------------------2------------------2-------------
A------------------------------------------------------------------------------
E------------------------------------------------------------------------------


Para tocar la cancion se usa este arpegio

            E-------X--X-------X-----X------x------
            B---X--------X-----X-----X------x------
            G---------------------X-----X------x---
            D----------X---------------------------
            A--------------------------------------
            E--------------------------------------
_______________________________/ \______________\
                                                /
Sólo al principio de cada         durante toda la canción              
 estrofa   


Vi Una versión de ésta canción pero no me gustó, Les mando otra versión ustedes decidan

            
            
Suggest correction
Creating personal tab
Creating personal tab
You can edit any tab online and save it as your Personal.

You can edit, replace or remove any tab part or add personal notes – all changes will be seen only by you.

Personal tabs can be accessed anytime from any device, even offline.
Learn more »
Give kudos to tab author, rate the tab!
1 2 3 4 5
comments
print report bad tab
guest
Wanna post a correction for this tab? Suggest correction