Oops, an error
Loading. Please wait.

100 Times Fuckeder intro tab

version 1
version 1

Intro

Whole song

Interactive

by NOFX
2,832 views 1 this week
1 commentread comment
1 2 3 4 5
x 3
add to favorites
×
Save as Personal and add changes to this tab that will be seen only by you. Learn more ›
×
You can save this tab as Personal to edit and correct it or add notes. All changes will be seen only by you. Learn more »
launch autoscroll
font size
0
reset
how to read this tab
guitar tuner
edit
Autoscroll
slow
fast
+/-
esc
set tempo
stop
Author
Difficulty
100 Times Fuckeder intro
Written by Fat Mike/ NOFX
From the Album "Wolves in Wolves Clothing"
Tabbed by- Andy-Fuckin-V!!!!
Tuning: Standard (DUH)
Tempo: 160BPM (Just play as fast as you can)

E-------------------------------------------------------------------|
B-------------------------------------------------------------------|
G-------------------------------------------------------------------|
D-----0-0-4-4-0-0------0-0-4-4-0-0------0-0-4-4-0-0-----------------|
A-2-2---------------------------------------------------1-1-2-2-4-4-|
E-----------------3-3---------------0-0-------------2-2-------------|

Repeat 3 times.

I'll do some more later. I really wanted to be the first to get some
stuff from this wonderful, life-changing record onto the net.

            
            
Suggest correction
Creating personal tab
Creating personal tab
You can edit any tab online and save it as your Personal.

You can edit, replace or remove any tab part or add personal notes – all changes will be seen only by you.

Personal tabs can be accessed anytime from any device, even offline.
Learn more »
Give kudos to tab author, rate the tab!
1 2 3 4 5
comments
print report bad tab
1 comment total.
+1 reply
LoDennis 135 Jan 16, 2008 08:57 AM

E-----------------|
B-----------------|
G-----------------|
D-----0-0-5-5-0-0-|
A-----------------|
E-3-3-------------|


just a little mistake :P

guest
You may want to rate the tab now too:
select rating
Wanna post a correction for this tab? Suggest correction