Oops, an error
Loading. Please wait.

60 tab

version 1
version 1

Whole song

Interactive

by NOFX
6,545 views 3 this week
3 commentsread comments
1 2 3 4 5
x 3
add to favorites
×
Save as Personal and add changes to this tab that will be seen only by you. Learn more ›
×
You can save this tab as Personal to edit and correct it or add notes. All changes will be seen only by you. Learn more »
launch autoscroll
font size
0
reset
how to read this tab
guitar tuner
edit
Autoscroll
slow
fast
+/-
esc
set tempo
stop
Author
intro
e|-----------------------------------2------------------------------------------|
B|--------2-----------------------3----3----------------------------------------|
G|------2---2----------3--------2--------2---------1----------------------------|
D|----2-------2------4---4----0------------------2---2--------------------------|
A|--0--------------4------4--------------------2-------2------------------------|
E|---------------2---------------------------0----------------------------------|

e|---------------------------------------------------------------------------|
B|---------3-----------------------------------------------------------------|
G|------4-----4----------1--------------6------------6------------6----------|
D|----4---------4------2---2----------7---7--------7---7--------7---7--------|
A|--2----------------2-------2------7-------7----7-------7----7-------7------|
E|-----------------0--------------5------------4------------3----------------|

e|---------------------------------------------------------------------------|
B|---------------------------------------------------------------------------|
G|--------3------------------------------------------------------------------|
D|------4---4----------------------------------------------------------------|
A|----4-------4--------------------------------------------------------------|
E|--2------------------------------------------------------------------------|

second part (where it speeds up) (this is my life..)
e|---------------------------------------------------------------------------|
B|---------------------------------------------------------------------------|
G|---------------------------------------------------------------------------|
D|---7-----7--7--------------------------------------------------------------|
A|---7-----7--7--------------------------------------------------------------|
E|---5-----5--5--------------------------------------------------------------|
(welcome to our....)
e|---------------------------------------------------------------------------|
B|---------------------------------------------------------------------------|
G|------------7---9----------------------------------------------------------|
D|--7---4-----7---9----------------------------------------------------------|
A|--7---4-----5---7----------------------------------------------------------|
E|--5---2--------------------------------------------------------------------|
(would you rather be....)
e|---------------------------------------------------------------------------|
B|---------------------------------------------------------------------------|
G|--4------------------------------------------------------------------------|
D|--4----2----7----4---------------------------------------------------------|
A|--2----2----7----4---------------------------------------------------------|
E|-------0----5----2---------------------------------------------------------|
ending thing (..and your taking it easy...)
e|---------------------------------------------------------------------------|
B|---------------------------------------------------------------------------|
G|------------7---9----------------------------------------------------------|
D|--7---4-----7---9----------------------------------------------------------|
A|--7---4-----5---7----------------------------------------------------------|
E|--5---2--------------------------------------------------------------------|

that's it.  this is probably one of my favorite nofx songs. i'm sorry i never bother to
all of hte little guitar licks and stuff.  i pretty much worry about the main stuff and
worry about hte other stuff cause i'm just the drummer who learns how to play songs to 
to himself when no one's around.
kyle of i forget.  www.iforget.tk

            
            
Suggest correction
Creating personal tab
Creating personal tab
You can edit any tab online and save it as your Personal.

You can edit, replace or remove any tab part or add personal notes – all changes will be seen only by you.

Personal tabs can be accessed anytime from any device, even offline.
Learn more »
Give kudos to tab author, rate the tab!
1 2 3 4 5
comments
print report bad tab
3 comments total.
0 reply
\m/(-_-)\m/ 175 Jun 02, 2006 12:33 PM

OMG I WAS LOOKING AL OVER THE PLACE FOR THIS TAB thanks u rock!

5 STARS

0 reply
blink182_4_life 372 Jul 12, 2006 07:22 AM

great tab dude
think u could do instant crassic?

0 reply
ZzyzxLuke 10 Dec 05, 2013 01:16 AM

Thank you so much :D

guest
You may want to rate the tab now too:
select rating
Wanna post a correction for this tab? Suggest correction