Oops, an error
Loading. Please wait.

Blasphemy The Victimless Crime bass

version 1
version 1

Whole song

Interactive

by NOFX
2,865 views 1 this week
no commentswrite comment
1 2 3 4 5
2 more votes to show rating
add to favorites
×
Save as Personal and add changes to this tab that will be seen only by you. Learn more ›
×
You can save this tab as Personal to edit and correct it or add notes. All changes will be seen only by you. Learn more »
launch autoscroll
font size
0
reset
guitar tuner
edit
Autoscroll
slow
fast
+/-
esc
set tempo
stop
Author
++++++++++++++++++++++++++++++++++++++++++
| NOFX- Blasphemy (The Victimless Crime) |
++++++++++++++++++++++++++++++++++++++++++


"Jesus, different name same story
All based on ancient Egyptian allegory"


Tuning: Standard EADG


Intro
1.
G|-------------------------------------------------------------|
D|----------------33-333-333--------------------33-333-333-----|
A|------------1-1------------3-3------------1-1------------3-3-|
E|-33-333-333--------------------33-333-333--------------------|

Verse
"Ill throw a pie in the face of piety..."
2.
G|-------------------------------------------------------------------------|
D|-------------------------------------------------------------------------|
A|----------11111111----------33333333----------------------------33333333-|
E|-33333333----------11111111----------33333333-11111111-00000000----------|

"I understand that faith..."
3.
G|-------------------------------------------------------------------------|
D|-------------------------------------------------------33333333-55555x---|
A|----------11111111-33333333-------------------11111111-------------------|
E|-33333333-------------------33333333-33333333----------------------------|

Chorus
"Blasphemy..."
4.
G|-----7-12-12-7-775---------3333333-----------------------------------|
D|-555-------------------5-3---------333-5-7-7777753-------------------|
A|-------------------111-----------------------------33333333-33333333-|--x2
E|---------------------------------------------------------------------|

Verse
"Im an unbeliever..."
5.
G|-------------------------------------------------------------------------|
D|-------------------------------------------------------------------------|
A|----------11111111----------33333333----------------------------33333333-|
E|-33333333----------11111111----------33333333-11111111-00000000----------|

"I understand we all have something..."
6.
G|-------------------------------------------------------------------------|
D|-------------------------------------------------------33333333----------|
A|----------11111111-33333333-------------------11111111-------------------|
E|-33333333-------------------33333333-33333333-------------------33333x---|

Chorus
"Blasphemy..."
7.
G|-----7-12-12-7-775---------3333333-----------------------------------|
D|-555-------------------5-3---------333-5-7-7777753-------------------|
A|-------------------111-----------------------------33333333-33333333-|--x2
E|---------------------------------------------------------------------|

Outro
8.
G|-------------------------------------------------------------------------------------------|
D|-55-5555-55-555-55-5555-55-777---------------------------555-33-3333-33-333-33-3333-33-333-|
A|-------------------------------11-1111-11-111-11-1111-11-----------------------------------|
E|-------------------------------------------------------------------------------------------|

Bridge
"Horus similar to Mithra..."
9.
G|----------------33-3333-33-333-------------------------------|
D|-11-1111-11-111----------------33-3333-33-333----------------|
A|----------------------------------------------33-3333-33-333-|
E|-------------------------------------------------------------|

"Jesus, different name same story..."
10.
G|----------------33-3333-33-333--------------------------------|
D|-11-1111-11-111----------------00-0000-00-000-000-000-000-000-|
A|--------------------------------------------------------------|
E|--------------------------------------------------------------|

11.
G|-------------------------------------------------------------------------|
D|-------------------------------------------------------------------------|
A|-------------------------------------------------------------------------|
E|-33333333-22222222-11111111-00000000-33333333-22222222-11111111-00000000-|

Verse
"My position hastn been occulted..."
12.
G|-------------------------------------------------------------------------|
D|-------------------------------------------------------------------------|
A|-------------------------------------------------------------------------|
E|-33333333-22222222-11111111-00000000-33333333-22222222-11111111-00000000-|

"Anything that is your holy..."
13.
G|-------------------------------------------------------------------------|
D|-------------------------------------------------------33333333-55555x---|
A|----------11111111-33333333-------------------11111111-------------------|
E|-33333333-------------------33333333-33333333----------------------------|

Chorus
"Blasphemy..."
14.
G|-----7-12-12-7-775---------3333333-----------------------------------|
D|-555-------------------5-3---------333-5-7-7777753-------------------|
A|-------------------111-----------------------------33333333-33333333-|--x2
E|---------------------------------------------------------------------|

Outro
15.
G|-------------------------------------------------------------------------|
D|----------------33-333-33---------------------33-3-----------------------|
A|----------1-1-1----------1-3-3----------1-1-1------3-1-------------------|
E|-33-333-33---------------------33-333-33---------------3~----------------|


Please rate!


Lyrics:

I'll throw a pie in the face of piety
I'll torch a torah right off a bridge
I am a reverend of irreverence
I'm a shill for any sacrilege
I understand that faith in a deity
Helps the masses who are having hard times
But blasphemy like prostitution
Are clearly victimless crimes

Blasphemy, blasphe-you, Jesus Christ the blackest Jew
Blasphe-you, blasphemy, poisonous pedagogy

I'm an unbeliever, I'm a heretic
I'm gonna projectile puke off a pew
I'm a trouble making immature imp
I'm gonna turn your other cheek for you
I understand we all need something to believe in
I believe I'll never be given wings and
I'm sorry if it's up there cuz I didn't think
A song was gonna hurt its feelings

Blasphemy, speaking deadpan
Apparently this god has got a master plan
Now they call foul, pure heresy
But ya gotta wonder, does he have a plan B?

Horus similar to Mithra, Attis analogous to Krishna
Jesus, different name same story
All based on ancient Egyptian allegory

My position hasn't been occulted
It can never be more overstated
My intelligence has been insulted
So my tongue lashes out in defense
Anything that is your holy or sacred
I'm gonna desecrate and use in jest
But you'll never hear a crack about Mohammed
Cuz I don't wanna get shot in the chest

Blasphemy, isn't this fun
Rob a rabbi, bugger a nun
Blasphemy, want some more?
Mother Mary, the virgin whore 



+++++++++++++++++++++++++++++++++
| RaiLeff                       |
| Underground__Dora@Hotmail.Com |
+++++++++++++++++++++++++++++++++

            
            
Suggest correction
Creating personal tab
Creating personal tab
You can edit any tab online and save it as your Personal.

You can edit, replace or remove any tab part or add personal notes – all changes will be seen only by you.

Personal tabs can be accessed anytime from any device, even offline.
Learn more »
Give kudos to tab author, rate the tab!
1 2 3 4 5
comments
print report bad tab
guest
You may want to rate the tab now too:
select rating
Wanna post a correction for this tab? Suggest correction