Oops, an error
Loading. Please wait.

Blasphemy The Victimless Crime tab

version 1
version 1

Whole song

Interactive

by NOFX
8,446 views 3 this week
3 commentsread comments
1 2 3 4 5
1 last vote to show rating
add to favorites
×
Save as Personal and add changes to this tab that will be seen only by you. Learn more ›
×
You can save this tab as Personal to edit and correct it or add notes. All changes will be seen only by you. Learn more »
launch autoscroll
font size
0
reset
how to read this tab
guitar tuner
edit
Autoscroll
slow
fast
+/-
esc
set tempo
stop
Artist : Nofx
Song: Blasphemy (The Victimless Crime)
Album: COaster

intro
e|-------------------------------------|
b|-------------------------------------|
g|-------------------------------------|
d|-------------5-3---------------------|
a|--5-555-5-55------33333-3-5-3-1------|
e|--------------------------------3----|


verse and chorus
e|-------------------------------------|
b|-------------------------------------|
g|------3-----5------------------------|
d|---5--3--3--5------------------------|
a|---5--1--3--3------------------------|
e|---3-----1---------------------------|


solo ?

bridge
Horus similar to Mithra, Attis analogous to Krishna
e|--------------|-----------------------|
b|--------------|-----------------------|
g|--8-----5-----|---8-----5--7----------|
d|--8--8--5--5--|---8--8--5--7----------|
a|--6--8--3--5--|---6--8--3--5----------|
e|-----6-----3--|------6----------------|



I’ll throw a pie in the face of piety
I’ll torch a torah right off a bridge
I am a reverend of irreverence
I’m a shill for any sacrilege
I understand that faith in a deity
Helps the masses who are having hard times
But blasphemy like prostitution
Are clearly victimless crimes

Blasphemy, blasphe-you, Jesus Christ the blackest Jew
Blasphe-you, blasphemy, poisonous pedagogy

I’m an unbeliever, I’m a heretic
I’m gonna projectile puke off a pew
I’m a trouble making immature imp
I’m gonna turn your other cheek for you
I understand we all need something to believe in
I believe I’ll never be given wings and
I’m sorry if it’s up there cuz I didn’t think
A song was gonna hurt its feelings

Blasphemy, speaking deadpan
Apparently this god has got a master plan
Now they call foul, pure heresy
But ya gotta wonder, does he have a plan B?

Horus similar to Mithra, Attis analogous to Krishna
Jesus, different name same story
All based on ancient Egyptian allegory

My position hasn’t been occulted
It can never be more overstated
My intelligence has been insulted
So my tongue lashes out in defense
Anything that is your holy or sacred
I’m gonna desecrate and use in jest
But you’ll never hear a crack about Mohammed
Cuz I don’t wanna get shot in the chest

Blasphemy, isn’t this fun
Rob a rabbi, bugger a nun
Blasphemy, want some more?
Mother Mary, the virgin whore



*****************
bongloard.de.vu

            
            
Suggest correction
Creating personal tab
Creating personal tab
You can edit any tab online and save it as your Personal.

You can edit, replace or remove any tab part or add personal notes – all changes will be seen only by you.

Personal tabs can be accessed anytime from any device, even offline.
Learn more »
Give kudos to tab author, rate the tab!
1 2 3 4 5
comments
print report bad tab
3 comments total.
+1 reply
D3xteR 16 Apr 29, 2009 10:27 AM

In verse better:

e|-------------------------------------|
b|-------------------------------------|
g|------------5------------------------|
d|---5--8--3--5------------------------|
a|---5--8--3--3------------------------|
e|---3--6--1---------------------------|

-2 reply
SGmay-bSG 61 May 07, 2009 08:29 AM

e|-------------------------------------------|
b|-------------------------------------------|
g|-------------------------------------------|
d|-----------53-------0-----------53-----0---|
a|---5-555355---3-3331-31--5-55535---3-33-31-|
e|-----------------------3------------------3|

+1 reply
dexxxqqq 61 May 08, 2009 05:37 AM

Check my tab (ver2 and guitar pro) :)

guest
Wanna post a correction for this tab? Suggest correction