Oops, an error
Loading. Please wait.
We have an official Bob tab made by UG professional guitarists. Check out the tab »
×
by NOFX
17,259 views 24 this week
3 commentsread comments
1 2 3 4 5
x 10
add to favorites
×
Save as Personal and add changes to this tab that will be seen only by you. Learn more ›
×
You can save this tab as Personal to edit and correct it or add notes. All changes will be seen only by you. Learn more »
launch autoscroll
font size
0
reset
how to read this tab
guitar tuner
edit
Autoscroll
slow
fast
+/-
esc
set tempo
stop
Author
NOFX - Bob
Tabbed by TMFiore
Leave corrections in the comments
STANDARD TUNING (eBGDAE)

[Guitar 1: Play nothing]

[Guitar 2: Play each note 16 times]
E|----------------------------------------------------------------|
B|----------------------------------------------------------------|
G|5555555555555555----------------5555555555555555----------------|
D|5555555555555555333333333333333355555555555555553333333333333333|
A|3333333333333333333333333333333333333333333333333333333333333333|
E|----------------1111111111111111----------------1111111111111111|
 C               F               C               F
[Bass: Play nothing]

[Both Guitars]
e|--------------------------------------------------------------------|
B|--------------------------------------------------------------------|
G|5~--------------------------------5~--------------------------------|
D|5~---------------3~---------------5~---------------3~---------------|
A|3~---------------3~---------------3~---------------3~---------------|
E|-----------------1~--------------------------------1~---------------|
 C                F                C                F

[Bass: Play same notes as both guitars]

[Both Guitars: After first power chord, play each PC 12x]
e|--------------------------------------------------------------------|
B|--------------------------------------------------------------------|
G|5~-55555555555555-----------------5~-55555555555555-----------------|
D|5~-555555555555553~-333333333333335~-555555555555553~-33333333333333|
A|3~-333333333333333~-333333333333333~-333333333333333~-33333333333333|
E|-----------------1~-11111111111111-----------------1~-11111111111111|
 C                F                C                F
Bass: Play same notes as both guitars

[Guitar 2 only: Clean](see notes)
e|----------------------------------------|
B|5--x5--x3--x3--x5--x5--x6--x6--x5--x5--x|
G|5--x5--x5--x5--x5--x5--x5--x5--x5--x5--x|
D|----------------------------------------|
A|----------------------------------------|
E|----------------------------------------|
 Repeat as many times as necessary

[Trumpet arranged for guitar]
e|--------------------------------------------------------------------------|
B|8-10-10-8-----------------------------8---------8-------8---------8-------|
G|-----------9--7-9--7---------------------10--9----10-9-----10--9----10-9--|
D|----------------------10----10-p9-10--------------------------------------|
A|--------------------------------------------------------------------------|
E|--------------------------------------------------------------------------|

e|8-7--8--8-7--8--10-12--12-10--8--7-8--8-7---------|
B|-------------------------------------------10--8--|
G|--------------------------------------------------|
D|--------------------------------------------------|
A|--------------------------------------------------|
E|--------------------------------------------------|

e|12-10--8--12--10-8--12--10--8--8-7--8-8-7---------|
B|-------------------------------------------10--8--|
G|--------------------------------------------------|
D|--------------------------------------------------|
A|--------------------------------------------------|
E|--------------------------------------------------|

[Guitar 2: Play same riff from before, and repeat as necessary]

[Bass]
G|----------------------------------------------------|
D|------2--5--3--2--------3--2--------5-5-3-3-2-2-----|
A|3--5--------------5--3--------5--3--------------5-5-|
E|----------------------------------------------------|

G|------------------------------------------------|
D|------2--5--3--2--------3--2--------2--------5--|
A|3--5--------------5--3--------5--3-----5--3-----|
E|------------------------------------------------|

G|----------------------------------------------------|
D|------2--5--3--2--------3--2--------5-5-3-3-2-2-----|
A|3--5--------------5--3--------5--3--------------5-5-|
E|----------------------------------------------------|

G|----------------------------------------------------|
D|------2--5--3--2--------3--2--------5-5-3-3-2-2-----|
A|3--5--------------5--3--------5--3--------------5-5-|
E|----------------------------------------------------|


[Both Guitars]
e|----------------------------------|
B|----------------------------------|
G|5~--------------------------------|
D|5~---------------3~---------------|
A|3~---------------3~---------------|
E|-----------------1~---------------|
 C                F
Bass: Play same notes as guitars

[Guitar 1]
e|----------------------------------------------------|
B|----------------------------------------------------|
G|5~---------------9~---------------10----------------|
D|5~---------------9~---------------10----------------|
A|3~---------------7~---------------8-----------------|
E|----------------------------------------------------|
 C                E                F

[Guitar 2]
e|---------------------------------------------------------------------|
B|---------------------------------------------------------------------|
G|5~---------------9~-----9-9--9-9-9-10-101010-101010-101010-101010-10-|
D|5~---------------9~-----9-9--9-9-9-10-101010-101010-101010-101010-10-|
A|3~---------------7~-----7-7--7-7-7-8--8-8-8--8-8-8--8-8-8--8-8-8--8--|
E|---------------------------------------------------------------------|
 C                E                 F

[Bass]
G|------------------------------------------------------|
D|------------------------------------------------------|
A|3~---------------7-777-777-777-777-7-8-888-888-888-8\-|
E|------------------------------------------------------|

[Both Guitars]
e|-----------------------------------|
B|-----------------------------------|
G|55-555-5\33-333-3------------------|
D|55-555-5\33-333-333-333-3/55-555-5-|
A|33-333-3\11-111-133-333-3/55-555-5-|
E|-----------------11-111-1/33-333-3-|
[Repeat 4 Times]

[Breakdown]

[Guitar 1]Play in necessary pattern
e|------------|
B|------------|
G|5*-3*-------|
D|5*-3*-3*-5*-|
A|3*-1*-3*-5*-|
E|------1*-3*-|
Repeat 2 Times

[Guitar 2]*Play in necessary pattern
e|--------------------|
B|--------------------|
G|12*-10*-9*-7*-5*-7*-|
D|x---x---x--x--x--x--|
A|10*-8*--7*-5*-3*-5*-|
E|--------------------|
Repeat 2 Times

[Bass]*Play in necessary pattern
G|------------|
D|------------|
A|3*-1*-------|
E|------1*-3*-|

[Scat-ending]

[Guitar 2 only]Clean (see notes)
e|----------------------------------------|
B|5--x5--x3--x3--x5--x5--x6--x6--x5--x5--x|
G|5--x5--x5--x5--x5--x5--x5--x5--x5--x5--x|
D|----------------------------------------|
A|----------------------------------------|
E|----------------------------------------|
 Repeat as necessary

************************************

| ~ = Let note ring
| X = Muted note
| x = "Let-go" of note
| / = Slide up
| \ = Slide down
| h = Hammer-on
| p = Pull-off

************************************

            
            
Suggest correction
Creating personal tab
Creating personal tab
You can edit any tab online and save it as your Personal.

You can edit, replace or remove any tab part or add personal notes – all changes will be seen only by you.

Personal tabs can be accessed anytime from any device, even offline.
Learn more »
comments
print report bad tab
3 comments total.
+1 reply
TMF128 520 Jul 02, 2009 02:46 AM

I just saw an error in the trumpet arrangement.

You have to play the 8--10--9 one more time, I just forgot to put it in there.

Cheers.

0 reply
superbb98 31 Mar 06, 2014 02:31 AM

Good job Buddy!

0 reply
eplogann 10 Oct 26, 2017 01:01 PM

Thanks man

guest
You may want to rate the tab now too:
select rating
Wanna post a correction for this tab? Suggest correction