Oops, an error
Loading. Please wait.
We have an official Cokie The Clown tab made by UG professional guitarists. Check out the tab »
×
by NOFX
6,182 views 6 this week
2 commentsread comments
1 2 3 4 5
x 5
add to favorites
×
Save as Personal and add changes to this tab that will be seen only by you. Learn more ›
×
You can save this tab as Personal to edit and correct it or add notes. All changes will be seen only by you. Learn more »
launch autoscroll
font size
0
reset
guitar tuner
edit
Autoscroll
slow
fast
+/-
esc
set tempo
stop
Author
+++++++++++++++++++++++++
| NOFX- Cokie The Clown |
+++++++++++++++++++++++++


"I'm sure you'll have fun watching me juggle
8 balls at one time I'm no fucking mime..."

Tuning: Standard EADG


Intro
1.
G|------------------------------------------------------------------|
D|------------------------------------------------------------------|
A|------------------------------------------------------------------|
E|-11-1-1-100-0-0-011-1-1-100-0-0-011-1-1-100-0-0-011-1-1-100-0-0-0-|--These are 1s

2.
G|-------------------------------------|
D|-------------------------------------|
A|-11111111-11111111-11111111-11111111-|
E|-------------------------------------|

Verse
"All the way from Palm Springs..."
3.
G|---------------------------------------------------------------------|
D|---------------------------------------------------------------------|
A|---------------------------------11111111-11111111-11111111-11111111-|
E|-11-1-1-100-0-0-011-1-1-100-0-0-0------------------------------------|

"Show him a warm welcome..."
4.
G|----------------------------------|
D|----------------------------------|
A|----------------------------------|
E|-11-1-1-100-0-0-011-1-1-100-0-0-0-|

Chorus
"Greetings all hello..."
5.
G|-------------------------------------------------------------------------|
D|-------------------33333333-33333333-------------------00000000-000000---|
A|-11111111-11111111-------------------00000000-00000000----------------33-|--x2
E|-------------------------------------------------------------------------|

"The squirting flower..."
6.
G|-------------------------------------------------------------------------|
D|-------------------------------------------------------------------------|
A|-11111111-11111111-33333333-33333333-------------------55555555-55555555-|
E|-------------------------------------11111111-11111111-------------------|

"You should be OK..."
7.
G|-------------------------------------|
D|-------------------55555555-55555555-|
A|-11111111-11111111-------------------|
E|-------------------------------------|

Outro
8.
G|---------------------------------------------------------------------|
D|---------------------------------------------------------------------|
A|---------------------------------11111111-11111111-11111111-11111111-|
E|-11-1-1-100-0-0-011-1-1-100-0-0-0------------------------------------|

Verse
"He's got oversized shoes..."
9.
G|---------------------------------------------------------------------|
D|---------------------------------------------------------------------|
A|---------------------------------11111111-11111111-11111111-11111111-|
E|-11-1-1-100-0-0-011-1-1-100-0-0-0------------------------------------|

"That is real blood dripping..."
10.
G|----------------------------------|
D|----------------------------------|
A|----------------------------------|
E|-11-1-1-100-0-0-011-1-1-100-0-0-0-|

Chorus
"Im Cokie the Clown..."
11.
G|-------------------------------------------------------------------------|
D|-------------------33333333-33333333-------------------00000000-000000---|
A|-11111111-11111111-------------------00000000-00000000----------------33-|--x2
E|-------------------------------------------------------------------------|

"The fudge has been lined..."
12.
G|-------------------------------------------------------------------------|
D|-------------------------------------33333333-33333333-------------------|
A|-11111111-11111111-33333333-33333333-------------------55555555-55555555-|
E|-------------------------------------------------------------------------|

"In the lemonade..."
13.
G|-------------------------------------|
D|-------------------------------------|
A|-11111111-11111111-------------------|
E|-------------------33333333-33333333-|

Outro
"He's the happiest clown..."
14.
G|-------------------------------------------------------------------|
D|-------------------------------------------------------------------|
A|-------------------------------------------------------------------|
E|-11-1-1-100-0-0-011-1-1-100-0-0-011-1-1-100-0-0-01~----------------|


Please rate thank you!


Lyrics

All the way from Palm Springs, just out of detox
Show him a warm welcome, let's get some applause

Greetings all, hello welcome to my show
I'm sure you'll have fun watching me juggle
8 balls at one time I'm no fucking mime
I play practical jokes this squirting flower
That wasn't flour that blew up your nose
It's my special blend of Ex, Coke and K
You should be okay in several hours

He's got oversized shoes, and ill fitting clothes
That is real blood dripping from his fake red nose

I'm Cokie the Clown I will trip you down 
Those 12 giant steps I brought you all presents
Against good judgment but being a good host
You all have been dosed the kettle corn's been laced
The fudge has been lined you're having a great time
But you might not recall from rohypnol 
In the lemonade cokie homemade

He's the happiest clown with the biggest frown
He's Cokie the Clown 



+++++++++++++++++++++++++++++++++
| RaiLeff                       |
| Underground__Dora@Hotmail.Com |
+++++++++++++++++++++++++++++++++

            
            
Suggest correction
Creating personal tab
Creating personal tab
You can edit any tab online and save it as your Personal.

You can edit, replace or remove any tab part or add personal notes – all changes will be seen only by you.

Personal tabs can be accessed anytime from any device, even offline.
Learn more »
comments
print report bad tab
2 comments total.
0 reply
KilljoyBassist 193 Aug 31, 2013 08:05 AM

Nice tab, spot on

0 reply
KeanMaynard13 20 Jan 21, 2017 04:25 PM

100% Accurate!!

guest
You may want to rate the tab now too:
select rating
Wanna post a correction for this tab? Suggest correction