Oops, an error
Loading. Please wait.

Doornails bass

by NOFX
2,437 views 1 this week
no commentswrite comment
1 2 3 4 5
2 more votes to show rating
add to favorites
×
Save as Personal and add changes to this tab that will be seen only by you. Learn more ›
×
You can save this tab as Personal to edit and correct it or add notes. All changes will be seen only by you. Learn more »
launch autoscroll
font size
0
reset
guitar tuner
edit
Autoscroll
slow
fast
+/-
esc
set tempo
stop
Author
Doornails by Nofx
From the album Wolves in Wolves' Clothing


This song actually only has guitar chords but i decided to tab it for bass
just for fun.


Intro/Verse1

(These two shots-)
----------------------------------------------------------------------|
----------------------------------------------------------------------|
0-00-000-5-55-555----------7-77-777-0-00-000-3-33-333-----------------|
------------------3-33-333----------------------------3-33-3333333333-|
(You know suicide-)
---------------------------------------------------------------------|
---------------------------------------------------------------------|
0-00-000-5-55-555----------7-77-777-0-00-000-3-33-333----------------|
------------------3-33-333----------------------------3~-------------|
(This beating’s for-)
----------------------------------------------------------------------|
----------------------------------------------------------------------|
0-00-000-5-55-555----------7-77-777-0-00-000-3-33-333-----------------|
------------------3-33-333----------------------------3-33-3333333333-|
(Sedated, Flatulated-)
---------------------------------------------------------------------|
---------------------------------------------------------------------|
0-00-000-5-55-555-2-22-222-7-77-777-0-00-000-3-33-333----------------|
------------------------------------------------------3~-------------|

Verse 2

(This patron’s for-)
-------------------------------------|
-------------------------------------|
3-33-333-5-55-555----------7-77-777--|    x3
------------------3-33-333-----------|
(This nitrous hit-)
-------------------------------------|
-------------------------------------|
0-00-000-3-33-333--------------------|
------------------3~-----------------|

Back to Verse 1 kinda

(This bowl is for-)
-------------------------------------------------------------------|
-------------------------------------------------------------------|
0-00-000-5-55-555----------7-77-777-0-00-000-3-33-333--------------|
------------------3-33-333----------------------------3-33-3333333-|
(And in Hollywood-)
-------------------------------------------------------------------|
-------------------------------------------------------------------|
0-00-000-5-55-555-2-22-222-7-77-777-0-00-000-3-33-333--------------|
------------------------------------------------------3~-----------|

Verse 2 again

(This patron’s for-)
-------------------------------------|
-------------------------------------|
3-33-333-5-55-555----------7-77-777--|    x2
------------------3-33-333-----------|


Ending

(This song is for-)
-------------------------------------|
-------------------------------------|
3-33-333-5-55-555-2-22-222-7-77-777--|
-------------------------------------|
(The ones who left-)
-------------------------------------|
-------------------------------------|
0-00-000-3-33-333--------------------|
------------------3~-----------------|

            
            
Suggest correction
Creating personal tab
Creating personal tab
You can edit any tab online and save it as your Personal.

You can edit, replace or remove any tab part or add personal notes – all changes will be seen only by you.

Personal tabs can be accessed anytime from any device, even offline.
Learn more »
Give kudos to tab author, rate the tab!
1 2 3 4 5
comments
print report bad tab
guest
You may want to rate the tab now too:
select rating
Wanna post a correction for this tab? Suggest correction