Oops, an error
Loading. Please wait.

Eddie Bruce And Paul bass

version 1
version 1

Whole song

Interactive

by NOFX
1,796 views 3 this week
no commentswrite comment
1 2 3 4 5
2 more votes to show rating
add to favorites
×
Save as Personal and add changes to this tab that will be seen only by you. Learn more ›
×
You can save this tab as Personal to edit and correct it or add notes. All changes will be seen only by you. Learn more »
launch autoscroll
font size
0
reset
guitar tuner
edit
Autoscroll
slow
fast
+/-
esc
set tempo
stop
Author
+++++++++++++++++++++++++++++++
| NOFX- Eddie, Bruce and Paul |
+++++++++++++++++++++++++++++++


Tuning: Standard EADG


Intro
1.
G|----------------------------------------------------------|
D|----------------------------------------------------------|
A|-00-0h3-0-0h5-0h77-0h10h12-12-00-0h3-0-0h5-0h7-0h10h12-12-|
E|----------------------------------------------------------|

2.
G|-----------------------------------------------|
D|------------------------------77-777-777-777-7-|
A|-00-0h3-0-0h5-0h77-0h10h12-12------------------|
E|-----------------------------------------------|

3.
G|-----------------------------------5~-5----5~-4~-|
D|----------------------------77-7-5------77-------|
A|-00-0h3-0-0h5-0h77-0-----------------------------|
E|---------------------3h5-5-----------------------|

4.
G|------------------------------9-7-5-4~-4-7-5-4----|
D|-----------------------------------------------5~-|
A|-00-0h3-0-0h5-0h77-0h10h12-12---------------------|
E|--------------------------------------------------|

Verse
"What happened to Bruce, Eddie and Paul..."
5.
G|--------------------------------5-7-9~-14-12-11~-7-|
D|------------------------------7--------------------|
A|-00-0h3-0-0h5-0h77-0h10h12-12----------------------|
E|---------------------------------------------------|

6.
G|-----------------------------------------------|
D|------------------------------77-777-777-777-7-|
A|-00-0h3-0-0h5-0h77-0h10h12-12------------------|
E|-----------------------------------------------|

Pre-Chorus
"Paul and Eddy had it good..."
7.
G|--------------------------------------------------------------------|
D|-77-777-766-666-644-444-400-000-077-777-766-666-644-444-4--00x--00x-|
A|--------------------------------------------------------------------|
E|--------------------------------------------------------------------|

"So after a couple years..."
8.
G|------------------------------------------------------------------|
D|-77-777-766-666-644-444-400-000-077-777-766-666-644-444-444-444-4-|
A|------------------------------------------------------------------|
E|------------------------------------------------------------------|

"A new man..."
9.
G|----------------------------------------|
D|--00x--00x--00x--00x--00000000-00000000-|
A|----------------------------------------|
E|----------------------------------------|

Chorus
"Paul got fucked..."
10.
G|------------------------------------------------------------------|
D|-44-444-444-444-4----------------22-222-222-222-2-----------------|
A|-----------------00-000-000-000-0----------------22-222-222-222-2-|
E|------------------------------------------------------------------|

"Searching for a beau..."
11.
G|-----------------------------------|
D|-00-000-000-000-000-000-0/33-333-3-|
A|-----------------------------------|
E|-----------------------------------|

Outro
12.
G|-------------------------------------------------------------------------------------|
D|-------------------------------------------------------------------------------------|
A|-0x----33-0h5-0x----33-0-1010-1099-9-10h12x----33-0h5-0x----33-0-----------0~--------|
E|-----------------------------------------------------------------3333-2222-----------|

Verse
"What happened to Bruce, Eddie and Paul..."
13.
G|---------------------------------4-5-7~-5-9-7-5-4-|
D|-------------------------------5------------------|
A|--------------------------------------------------|
E|--------------------------------------------------|

14.
G|------------------------------1414-12h1414-12-----------------|
D|----------------------------------------------1212-10h1212-10-|
A|-00-0h3-0-0h5-0h77-0h10h12-12---------------------------------|
E|--------------------------------------------------------------|

Pre-Chorus
"Bruce and Samson knew Eddie..."
15.
G|--------------------------------------------------------------------|
D|-77-777-766-666-644-444-400-000-077-777-766-666-644-444-4--00x--00x-|
A|--------------------------------------------------------------------|
E|--------------------------------------------------------------------|

"With Paul no longer around..."
16.
G|------------------------------------------------------------------|
D|-77-777-766-666-644-444-400-000-077-777-766-666-644-444-444-444-4-|
A|------------------------------------------------------------------|
E|------------------------------------------------------------------|

"Convinced him to..."
17.
G|----------------------------------------|
D|--00x--00x--00x--00x--00000000-00000000-|
A|----------------------------------------|
E|----------------------------------------|

Chorus
"Kudos to Paul..."
18.
G|------------------------------------------------------------------|
D|---------------------------------22-222-222-222-2-----------------|
A|-----------------00-000-000-000-0----------------22-222-222-222-2-|
E|-22-222-222-222-2-------------------------------------------------|

"Number of the beast..."
19.
G|-----------------------------------|
D|-00-000-000-000-000-000-0/33-333-3-|
A|-----------------------------------|
E|-----------------------------------|

Outro
20.
G|---------------------------------------------------------------------------|
D|---------------------------------------------------------------------------|
A|-0x----33-0h5-0x----33-0-1010-1099-9-10h12x----33-0h5-0x----33-0-----------|
E|-----------------------------------------------------------------3333-2222-|

21.
G|------------------------------------------------------------------------|
D|---------------------------------------------33333333-22222222-00000000-|
A|-0000000-00000000-00000000-00000000-00000000----------------------------|
E|------------------------------------------------------------------------|

Bridge
22.
G|------------------------------------------------------------------|
D|------------------------------------------------------------------|
A|-00-000-0------------------------00-000-0-------------------------|--x2
E|---------33-333-311-111-133-333-3--------33-333-311-111-133-333-3-|

23.
G|-------------------|
D|-------------------|
A|-0~----------------|
E|-------------------|

Second Part       2:35
24.
G|-----------------------------------------------------------------------------------|
D|----5h777--777----------5h777--5h777-----------5h777--777----------5h777-----------|
A|-0~------------5~-3~-0~---------------------0~------------5~-3~-0~--------3~-5~----|
E|--------------------------------------------------------------------------------3~-|

25.
G|-------------------------------------------------------------------------------------|
D|----5h777--777----------5h777--5h777-----------5h777--777----------5h777--3332~-2-0~-|
A|-0~------------5~-3~-0~---------------------0~------------5~-3~-0~-------------------|
E|-------------------------------------------------------------------------------------|

26.
G|-----------------------------------------------------------------------------------|
D|----5h777--777----------5h777--5h777-----------5h777--777----------5h777-----------|
A|-0~------------5~-3~-0~---------------------0~------------5~-3~-0~--------3~-5~----|
E|--------------------------------------------------------------------------------3~-|

27.
G|-------------5~-55-------------5~-55-------------5~-55-------------------|
D|-7-777777555-------5-555555555-------7-777777555-------7-777777----------|
A|----------------------------------------------------------------3~-5~----|
E|----------------------------------------------------------------------3~-|

28.
G|-------------------------------------------------------------------------------|
D|-77777777---------------55555555-55-------00000000----2~-00~-------------------|
A|----------3h5-3h5p3-0--------------333444----------333-------00000000-3~-5~----|
E|----------------------3-----------------------------------------------------3~-|

29.
G|------------------------------------------------------------------------|
D|-7-77777777777777-5-55555555555555-0-000000----2~-00~-------------------|
A|--------------------------------------------333-------0-000000-3~-5~----|
E|---------------------------------------------------------------------3~-|

30.
G|------------------------------------------------------------------------|
D|-7-77777777777777-5-55555555555555-0-000000----2~-00~-------------------|
A|--------------------------------------------333-------0-000000-3~-5~-3~-|
E|------------------------------------------------------------------------|

"What happened to..."
31.
G|---------------------------------------------------------------------------------|
D|----------------------------------------------------5h77777777-77777777-77777777-|
A|-5~---------------3~------------3~-5~----0~-0000000------------------------------|
E|--------------------------------------3~-----------------------------------------|

32.
G|-------------------------------------------------------------|
D|----5h777777777-77777777-77777777-5~-2~-0~-2~-0~----0~-------|
A|-0~----------------------------------------------3~----3~-0x-|
E|-------------------------------------------------------------|


Please rate!


Lyrics:

What happened to Bruce, Eddie, and Paul?
Paul and Eddie had it good
But Paul loved his cocaine and Eddie hated punks
So after a couple years
Eddie broke it off with Paul to look for a new man

Paul got fucked, fucked by Steve
Eddie's at the Red Lion looking for a new steed
Searching for a beau who sings in falsetto

What happened to Bruce, Eddie, and Paul?
What happened to Eddie, Paul, and Bruce?
Bruce and Samson knew
Eddie was looking for a long term, stable relationship
With Paul no longer around,
Bruce left Samson for Eddie cuz Steve convinced him to

Kudos to Paul, fuck you Bruce
How you supposed to rock 'n' roll without substance abuse
Number of the Beast is in bed with Rob and Judas Priest 



+++++++++++++++++++++++++++++++++
| RaiLeff                       |
| Underground__Dora@Hotmail.Com |
+++++++++++++++++++++++++++++++++

            
            
Suggest correction
Creating personal tab
Creating personal tab
You can edit any tab online and save it as your Personal.

You can edit, replace or remove any tab part or add personal notes – all changes will be seen only by you.

Personal tabs can be accessed anytime from any device, even offline.
Learn more »
Give kudos to tab author, rate the tab!
1 2 3 4 5
comments
print report bad tab
guest
You may want to rate the tab now too:
select rating
Wanna post a correction for this tab? Suggest correction