Oops, an error
Loading. Please wait.

Electricity tab

version 3
version 3

Whole song

Interactive

by NOFX
1,760 views 3 this week
no commentswrite comment
1 2 3 4 5
x 3
add to favorites
×
Save as Personal and add changes to this tab that will be seen only by you. Learn more ›
×
You can save this tab as Personal to edit and correct it or add notes. All changes will be seen only by you. Learn more »
launch autoscroll
font size
0
reset
how to read this tab
guitar tuner
edit
Autoscroll
slow
fast
+/-
esc
set tempo
stop
Author
-------------------------------------------------------------------------------
                            Electricity - Nofx
-------------------------------------------------------------------------------
Tabbed by: Martyn Pollard
Email: circusfreak13@hotmail.co.uk

Tuning: Standard

Intro

e|------------------------------------------------------------|
B|------------------------------------------------------------|
G|------------------------------------------------------------|
D|-5-----5-----5-----5---5/77-777-777-777-777-777-777-777-----|
A|-----------------------5/77-777-777-777-777-777-777-777-----|
E|----3-----3-----3------3/55-555-555-555-555-555-555-555-----|

Main Riff 
Guitar 1
e|-------------------------------------------------|
B|-------------------------------------------------|
G|------9----9--9--10--9--9---9-----9--7--9--7--9--|
D|---------7----------------7---10-----------------|
A|-12\--------------------------------------------|
E|-------------------------------------------------|

e|----------------------------------------------|
B|-----------3----------------------------------|
G|-----5--5-----5--5----5--2--5--4--5--4--5-----|
D|--3-----------------3-------------------------|
A|----------------------------------------------|
E|----------------------------------------------|

e|----------------------------------------------|
B|----------------------------------------------|
G|------------2---------------------------------|
D|-----5--5------5--5------5--2--5--3--5--3--5--|
A|--3------------------3------------------------|
E|----------------------------------------------|

e|----------------------------------------------|
B|------------5---------------------------------|
G|-------7--7----7--7-----7--4--7--5--7--5--7---|
D|---5-----------------5------------------------|
A|----------------------------------------------|
E|----------------------------------------------|

Guitar 2
e|---------------------------------------------------------------------|
B|---------------------------------------------------------------------|
G|----------------------------------55-555-555-555-5-------------------|
D|--77-777-777-777-733-333-333-333-355-555-555-555-555-555-555-555-5---|
A|--77-777-777-777-733-333-333-333-333-333-333-333-355-555-555-555-5---|
E|--55-555-555-555-511-111-111-111-1----------------33-333-333-333-3---|

Verse

e|-------------------------------------------------------------|
B|-------------------------------------------------------------|
G|--14--------12-------10--------12-----------------12---------|
D|--14--x14---12--x2---10--x14---12--x2---10--------12--x16----|
A|--12--------10--------8--------10-------10--x16---10---------|
E|-----------------------------------------8-------------------|

Chorus kind of bit

e|-----------------------|
B|-----------------------|
G|-----------------------|
D|--7---------5----------|
A|--7--x32----5--x32-----|
E|--5---------3----------|

Post Chorus

e|----------------------------------------------------------------|
B|----------------------------------------------------------------|
G|----------------------------------------------------------------|
D|---5/77-777-777-777-777-777-777-777-----------------------------|
A|---5/77-777-777-777-777-777-777-777-----------------------------|
E|---3/55-555-555-555-555-555-555-555-----------------------------|

Main Riff 2
Guitar 1
e|-------------------------------------------------|
B|-------------------------------------------------|
G|------9----9--9--10--9--9---9-----9--7--9--7--9--|
D|---------7----------------7---10-----------------|
A|-/12\--------------------------------------------|
E|-------------------------------------------------|

e|----------------------------------------------|
B|-----------3----------------------------------|
G|-----5--5-----5--5----5--2--5--4--5--4--5-----|
D|--3-----------------3-------------------------|
A|----------------------------------------------|
E|----------------------------------------------|

e|----------------------------------------------|
B|----------------------------------------------|
G|------------2---------------------------------|
D|-----5--5------5--5------5--2--5--3--5--3--5--|
A|--3------------------3------------------------|
E|----------------------------------------------|

e|----------------------------------------------|
B|------------5---------------------------------|
G|-------7--7----7--7-----7--4--7--5--7--5--7---|
D|---5-----------------5------------------------|
A|----------------------------------------------|
E|----------------------------------------------|

Guitar 2
e|---------------------------------------------------------------------|
B|---------------------------------------------------------------------|
G|----------------------------------55-555-555-555-5-------------------|
D|--77-777-777-777-733-333-333-333-355-555-555-555-555-555-555-555-5---|
A|--77-777-777-777-733-333-333-333-333-333-333-333-355-555-555-555-5---|
E|--55-555-555-555-511-111-111-111-1----------------33-333-333-333-3---|

Outro
Guitar 1
e|-----------------------------------------------|------|
B|-----------------------------------------------|------|
G|----9----9--9--10--9--9---9-----9--7--9--7--9--|--x8--| Fade Out
D|------7-----------------7---10-----------------|------|
A|-----------------------------------------------|------|
E|-----------------------------------------------|------|

Guitar 2
e|---------------------------|-------------------------|
B|---------------------------|-------------------------|
G|---------------------------|-------------------------|
D|---777-777-777-777---------|---777-777-77------------|
A|---777-777-777-777--x3-----|---777-777-77------------| Let Ring
E|---555-555-555-555---------|---555-555-55------------|


| /  slide up
| \  slide down
| h  hammer-on
| p  pull-off
| ~  vibrato
| +  harmonic
| x  Mute note
===============================================================================

The strumming amounts/ length mat be slightly off - but hey, if you use tabs
for the strumming pattern too then you want to be a bit more creative :P

Also, in the tab some bits like Main Riff and Main Riff 2 are very similar 
but i've named them differently for the very small variations just in case 
people are confused.

Structure:

Intro
Main Riff x 2
Verse x 2
Chorus
Post Chorus
Main Riff 2 x 2
Verse x 2
Chorus
Outro

Lyrics:

One source of energy
The ultimate discovery
Electric blue for me
Never more to be free
Electricity
Nuclear and H.E.P
Carbon fuels from the sea
Wasted electricity
Hey Hey Hey Hey
Hey Hey Hey Hey
NO!
One source of energy
Electricity
All we need to live today
A gift for man to throw away
The chance has nearly gone
The alternative is one
Final source of energy
Solar electricity
Hey Hey Hey Hey
Hey Hey Hey Hey
Electricity
Electricity
Electricity
Electricity

            
            
Suggest correction
Creating personal tab
Creating personal tab
You can edit any tab online and save it as your Personal.

You can edit, replace or remove any tab part or add personal notes – all changes will be seen only by you.

Personal tabs can be accessed anytime from any device, even offline.
Learn more »
Give kudos to tab author, rate the tab!
1 2 3 4 5
comments
print report bad tab
guest
You may want to rate the tab now too:
select rating
Wanna post a correction for this tab? Suggest correction