Oops, an error
Loading. Please wait.
We have an official Franco Unamerican tab made by UG professional guitarists. Check out the tab »
×
by NOFX
226 views 1 this week
1 commentread comment
1 2 3 4 5
2 more votes to show rating
add to favorites
×
Save as Personal and add changes to this tab that will be seen only by you. Learn more ›
×
You can save this tab as Personal to edit and correct it or add notes. All changes will be seen only by you. Learn more »
launch autoscroll
font size
0
reset
guitar tuner
edit
Autoscroll
slow
fast
+/-
esc
set tempo
stop
Author
Difficulty
NOFX
Franco Un-America
War On Errorism
Tabbed by Patrick
Tuning: Standard (EADG)

Intro (Guitar)

Pre Verse
G|---------------------------------------------------------|
D|---------------------------------------------------------| (x2)
A|--------3-3-3---------7-7-7-------------3-3-3--5-5-5-----|
E|--3-3-3---------3-3-3---------5-5-5-5-5------------------|

Verse
G|--------------------------------------------------------------------------------|
D|--------------------------------------------------------------------------------| (x2)
A|----------3-3-3-3-----------7-7-7-7-------------------3-3-3-3--5-5-5-5----------|
E|-3-3-3-3-----------3-3-3-3-----------5-5-5-5-5-5-5-5----------------------------|

Pre Chorus Part 1
G|--------------------------------------------------------------------------------|
D|--------------------------------------------------------------------------------|
A|------------------------------------------------------3-3-3-3--5-5-5-5----------| (x1)
E|-3-3-3-3-3-3-3-3-3-2-2-2-2-2-2-2-2-0-0-0-0-0-0-0-0-0----------------------------|

Pre Chorus Part 2
G|--------------------------------------------------------------|-----------------|
D|--------------------------------------------------------------|-----------------|
A|-------5-5-------3-3-------5-5-------3-3-------5-5-------3-3--|------5-5--------|(x1)
E|--3-3-------5-5-------3-3-------5-5-------3-3-------5-5-------|--3-3------5-----|

Chorus
G|---------------------------------------------------------|
D|---------------------------------------------------------|  (x4)
A|--------3-3-3---------7-7-7-------------3-3-3--5-5-5-----|
E|-3-3-3---------3-3-3---------5-5-5-5-5-------------------|

Verse
G|--------------------------------------------------------------------------------|
D|--------------------------------------------------------------------------------| (x2)
A|----------3-3-3-3-----------7-7-7-7-------------------3-3-3-3--5-5-5-5----------|
E|-3-3-3-3-----------3-3-3-3-----------5-5-5-5-5-5-5-5----------------------------|

Chorus
G|--------------------------------------------------------|
D|--------------------------------------------------------| (x4)
A|--------3-3-3---------7-7-7-------------3-3-3--5-5-5----|
E|-3-3-3---------3-3-3---------5-5-5-5-5------------------|

Pre-Brdge
G|-----------------------------------------------------|
D|-----------------------------------------------------| (x1)
A|-----------------------------------------------------|
E|-3-3-3-3-3-3-3-3-------------------------------------|

Bridge
G|---------------------------------------------------------|
D|---------------------------------------------------------|
A|-------5~----------3~---------5~--------3~---------------| (x1)
 E|-3~----------5~---------3~----------5~------------------|

Outro
G|------------------------------------------------------------|-------------------|
D|------------------------------------------------------------|-------------------|
A|------5-5------3-3-------5-5-------3-3-------5-5-------3-3--|------5-5----------|(x1)
E|-3-3------5-5-------3-3-------5-5-------3-3-------5-5-------|--3-3------5-------|

            
            
Suggest correction
Creating personal tab
Creating personal tab
You can edit any tab online and save it as your Personal.

You can edit, replace or remove any tab part or add personal notes – all changes will be seen only by you.

Personal tabs can be accessed anytime from any device, even offline.
Learn more »
Give kudos to tab author, rate the tab!
1 2 3 4 5
comments
print report bad tab
1 comment total.
0 reply
TheHappyGrouch 202 Oct 30, 2013 03:45 PM

Wrong chorus:
G|------------------------------------|
D|------------------------------------|
A|----------5-5-5-5-----------3-3-3-3-|
E|-3-3-3-3-----------0-0-0-0----------|

No pre-chorus part 2 in the song.
The outro is the chorus again.
There is no bass in the bridge.

guest
You may want to rate the tab now too:
select rating
Wanna post a correction for this tab? Suggest correction