Oops, an error
Loading. Please wait.

Green Corn tab

version 3
version 3

Whole song

Interactive

by NOFX
4,227 views 24 this week
1 commentread comment
1 2 3 4 5
1 last vote to show rating
add to favorites
×
Save as Personal and add changes to this tab that will be seen only by you. Learn more ›
×
You can save this tab as Personal to edit and correct it or add notes. All changes will be seen only by you. Learn more »
launch autoscroll
font size
0
reset
how to read this tab
guitar tuner
edit
Autoscroll
slow
fast
+/-
esc
set tempo
stop
Difficulty
intermediate
Song: Green Corn

Band: NOFX

Album: Ribbed


Standard Tuning (E A D G B E)


Legend: PM = Palm Muted (notes indicated by .'s)
        r = let ring
        b = bend


This is my first tab, I hope it's not too confusing. The
solo and some other parts might b a little off. E-mail me
at UGAdawgs35256@netscape.net for any insults, compliments,
suggestions, etc.


Intro

Guitar 1
E|----------------------------------------------------|
B|----------------------------------------------------|
G|---------------------------------------------5555---|
D|-77-777-777-777-777-777-777-777-733-333-333-35555---|
A|-77-777-777-777-777-777-777-777-733-333-333-33333---|
E|-55-555-555-555-555-555-555-555-511-111-111-1-------|

Guitar 2
E|-------------------------------------------------(very---|
B|--------------------------------------------------fast)--|
G|---------------------------1010-101010-101010-10---------|
D|-----------1111-----10------x-x--x-x-x--x-x-x--x10101010-|
A|------------x-x------x------8-8--8-8-8--8-8-8--8-x-x-x-x-|
E|------------9-9------8---------------------------8-8-8-8-|




Main Riff

Guitar 1
E|----------------------------------------------------|
B|----------------------------------------------------|
G|-14-12-14-------------------14-12-14----------------|
D|--x--x--x-1210--12-10-7-10---x--x--x-1210-12-10--7--|
A|-12-10-12--x-x---x--x-x--x--12-10-12--x-x--x--x--x--|
E|----------10-8--10--8-5--8-----------10-8-10--8--5--|

Guitar 2
E|----------------------------------------------------|
B|----------------------------------------------------|
G|----------------------------------------------------|
D|-7777-7777-7777-7777-7777-7777-7777-7777------------|
A|-7777-7777-7777-7777-7777-7777-7777-7777------------|
E|-5555-5555-5555-5555-5555-5555-5555-5555------------|


Guitar 1
E|----------------------------------------------------|
B|----------------------------------------------------|
G|-910--9---------------------------------------------|
D|-x-x--x-10---10101010-------------------------------|
A|-7-8--7--x---10101010-------------------------------|
E|---------8----8-8-8-8-------------------------------|

Guitar 2
E|----------------------------------------------------|
B|----------------------------------------------------|
G|-------------5555-----------------------------------|
D|-33-333-333-35555-----------------------------------|
A|-33-333-333-33333-----------------------------------|
E|-11-111-111-1---------------------------------------|




Pre-Verse (rhythm is very hard to get)

Both Guitars
E|----------------------------------------------------|
B|----------------------------------------------------|
G|----------------------------------------------------|
D|-77-7777-777-77-7777-777-77-7777-777-3--2-3--2-3-5--|
A|-77-7777-777-77-7777-777-77-7777-777-3--2-3--2-3-5--|
E|-55-5555-555-55-5555-555-55-5555-555-1--0-1--0-1-3--|
PM .. .... ... .. .... ... .. .... ...

E|----------------------------------------------------|
B|-----------------------------------(pick slide)-----|
G|-52-2-2-2-------------------------------------------|
D|-52-2-2-2-3--2-3--2-3-5-7-775-5522222222------------|
A|-30-0-0-0-3--2-3--2-3-5-7-775-5522222222------------|
E|----------1--0-1--0-1-3-5-553-3300000000------------|




Verse

Both Guitars
E|----------------------------------------------------|
B|----------------------------------------------------|
G|-------------5-55------------5-55-------------------|
D|-7-773-333-335-555-555-553-335-55------(repeat)-----|
A|-7-773-333-333-335-555-553-333-33-------------------|
E|-5-551-111-11----3-333-331-11-----------------------|




Main Riff with variation

on guitar 1, replace
E|----------------------|      |---------------------|
B|----------------------|      |---------------------|
G|-910--9---------------|      |-910-9---------------|
D|-x-x--x-10---10101010-| with |-x-x-x-1210-10101010-|
A|-7-8--7--x---10101010-|      |-7-8-7--x-x-10101010-|
E|---------8----8-8-8-8-|      |-------10-8--8-8-8-8-|


Repeat Verse




Bridge


Both Guitars
E|----------------------------------------------------|
B|----------------------------------------------------|
G|----------------------------------------------------|
D|-77-777-777-777-755-555-555-555-533-3---------------|
A|-77-777-777-777-755-555-555-555-533-3-3200-2-3-2-5-3|
E|-55-555-555-555-533-333-333-333-311-1---------------|

E|-------|
B|-------|
G|-------|
D|-2r----|
A|-2r----|
E|-0r----|


Guitar 1
E|----------------------------------------------------|
B|----------------------------------------------------|
G|----------------------------------------------------|
D|-77-7777-777-77-7777-777-77-7777-777----------------|
A|-77-7777-777-77-7777-777-77-7777-777----------------|
E|-55-5555-555-55-5555-555-55-5555-555----------------|
PM .. .... ... .. .... ... .. .... ...

Guitar 1 keeps playing this, then Guitar 2 comes in with
E|----------------------------------------------------|
B|----------------------------------------------------|
G|----------------------------------------------------|
D|-7-7--75------7-7--75------7-7--75------------------|
A|--------7730---------7735---------7730--------------|
E|----------------------------------------------------|

I think Guitar 2 has some sort of effect, but not sure what


Both Guitars
E|---------------------|
B|---------------------|
G|---------------------|
D|-3--2-3--2-3-5-------|
A|-3--2-3--2-3-5-------|
E|-1--0-1--0-1-3-------|




Solo

Guitar 1
E|-----------------------------5-7-8-10-12-10---------|
B|-------------------------6-8----------------13-10b--|
G|-------------------5-7-9----------------------------|
D|-------------5-7-9----------------------------------|
A|-------5-7-8----------------------------------------|
E|-5-7-8----------------------------------------------|

E|----------------------------------------------------|
B|-13p121212-15p121212-13p121212-15p121212-13p121212--|
G|----------------------------------------------------|
D|----------------------------------------------------|
A|----------------------------------------------------|
E|----------------------------------------------------|

E|-------------------------------17-15----------15-17-|
B|-15p121212-13p121212-15p121212-------17-15-17-------|
G|----------------------------------------------------|
D|----------------------------------------------------|
A|----------------------------------------------------|
E|----------------------------------------------------|

E|-15--------|
B|-----------|
G|----14b----|
D|-----------|
A|-----------|
E|-----------|


Guitar 2
E|----------------------------------------------------|
B|----------------------------------------------------|
G|-----------------77-777-7-----------(repeat-with----|
D|-77-777-755-555-577-777-777-777-7----pick-slide ----|
A|-77-777-755-555-555-555-577-777-7-----at-end)-------|
E|-55-555-533-333-3--------55-555-5-------------------|



Repeat Verse with slight pause halfway in



Outro

Guitar 1
E|----------------------------------------------------|
B|----------------------------------------------------|
G|-14-12-14--------14-12-14--------14-12-14-----------|
D|--x--x--x-1210----x--x--x-1210----x--x--x-1210------|
A|-12-10-12--x-x---12-10-12--x-x---12-10-12--x-x------|
E|----------10-8------------10-8------------10-8------|

Guitar 2
E|----------------------------------------------------|
B|----------------------------------------------------|
G|----------------------------------------------------|
D|-77777777-1010101010101010-1212121212121212--14-----|
A|-77777777-1010101010101010-1212121212121212--14-----|
E|-55555555--8-8-8-8-8-8-8-8-1010101010101010--12-----|


Guitar 1
E|------------|
B|------------|
G|------------|
D|-12-10--7---|
A|--x--x--x---|
E|-10--8--5---|

Guitar 2
E|------------|
B|------------|
G|------------|
D|-12-10--7---|
A|-12-10--7---|
E|-10--8--5---|



            
            
Suggest correction
Creating personal tab
Creating personal tab
You can edit any tab online and save it as your Personal.

You can edit, replace or remove any tab part or add personal notes – all changes will be seen only by you.

Personal tabs can be accessed anytime from any device, even offline.
Learn more »
Give kudos to tab author, rate the tab!
1 2 3 4 5
comments
print report bad tab
1 comment total.
0 reply
Lorentz89 10 Aug 07, 2006 03:04 AM

cvxc

guest
Wanna post a correction for this tab? Suggest correction