Oops, an error
Loading. Please wait.

I Dont Like Me Anymore tab

by NOFX
262 views 27 this week
no commentswrite comment
1 2 3 4 5
1 last vote to show rating
add to favorites
×
Save as Personal and add changes to this tab that will be seen only by you. Learn more ›
×
You can save this tab as Personal to edit and correct it or add notes. All changes will be seen only by you. Learn more »
launch autoscroll
font size
0
reset
how to read this tab
guitar tuner
edit
Autoscroll
slow
fast
+/-
esc
set tempo
stop
About this tab version
Full guitar tab of song with most 2nd guitar parts pointed out. Please rate or comment. Was this info helpful? Yes No
[Intro]

e|---------------------------------|-----------------------------------|
B|---------------------------------|-----------------------------------|
G|---------------------2-----------|-----------------------------------|
D|-----2-------0-----2---------2---|-----2-------0--------9-------9\---|
A|---2-------2-----0-----0---2-----|---2-------2--------9---9---9------|
E|-0-----0-3-----3---------0-----0-|-0-----0-3-----3-/7-------7--------|

e|---------------------------------|-----------------------------------|
B|---------------------------------|-----------------------------------|
G|-----5---------------7-------8\--|-----5-----------------------------|
D|---5---5-----5-----7---7---9-----|---5---------5---------------------|
A|-3---------5---5-5-------6-------|-3---------5-----5-----------------|
E|---------3-----------------------|---------3-------------------------|



[PreVerse]

   Guitar 1, play 2x
e|-------------------------------------------------|-------------------------------------------------|
B|-------------------------------------------------|-------------------------------------------------|
G|-------------------------------------------------|-------------------------------------------------|
D|-------------------------------------------------|-------------------------------------------------|
A|-2--2--2--2--2--2--2--2--5--5--5--5--5--5--5--5--|-7--7--7--7--7--7--7--7--2--2--2--2--2--2--2--2--|
E|-0--0--0--0--0--0--0--0--3--3--3--3--3--3--3--3--|-5--5--5--5--5--5--5--5--0--0--0--0--0--0--0--0--|

   Guitar 2, played 2x similarly 
e|-------------------------------|---------------------------|
B|-------------------------------|---------------------------|
G|-------------------------------|---------------------------|
D|---7--5-----5----8-7--5--7--5--|------5-----5-----5-----5--|
A|-7-------7-----7---------------|-7--7-----7-----7-----7----|
E|-------------------------------|---------------------------|



[Verse]

   All PM notes
e|---------------------------------|----------------------------------|
B|---------------------------------|----------------------------------|
G|---------------------------------|----------------------------------|
D|---------------------------------|----------------------------------|
A|---------------------------------|----------------------------------|
E|-0-0-0-0-0-0-0-0-3-3-3-3-3-3-3-3-|-5-5-5-5-5-5-5-5-0-0-0-0-0-0-0-0--|

e|---------------------------------|----------------------------------|
B|---------------------------------|----------------------------------|
G|---------------------------------|----------------------------------|
D|---------------------------------|----------------------------------|
A|---------------------------------|----------------------------------|
E|-0-0-0-0-0-0-0-0-3-3-3-3-3-3-3-3-|-7-7-7-7-7-7-7-7-7-7-7-7-7-7-7-7--|

e|---------------------------------|----------------------------------|
B|---------------------------------|----------------------------------|
G|---------------------------------|----------------------------------|
D|---------------------------------|----------------------------------|
A|-3-3-3-3-3-3-3-3-----------------|-5-5-5-5-5-5-5-5-6-6-6-6-6-6-6-6--|
E|-----------------3-3-3-3-3-3-3-3-|----------------------------------|

e|---------------------------------|----------------------------------|------------------|
B|---------------------------------|----------------------------------|------------------|
G|---------------------------------|----------------------------------|------------------|
D|---------------------------------|---------7-7-7-7-7-7-7-7-7-7-7-7--|------------------|
A|---------------------------------|-5-5-5-5-5-5-5-5-5-5-5-5-5-5-5-5--|-2-2-2-2-2-2-2-2--|
E|-8-8-8-8-8-8-8-8-7-7-7-7-7-7-7-7-|----------------------------------|-0-0-0-0-0-0-0-0--|
                                             let chords ring             2 beats



[Chorus]

   Guitar 1
e|---------------------------------|----------------------------------|
B|---------------------------------|----------------------------------|
G|---------------------------------|----------------------------------|
D|-2-2-2-2-2-2-2-2-5-5-5-5-5-5-5-5-|-7-7-7-7-7-7-7\--2-2-2-2-2-2-2-2--|  play 3x
A|-2-2-2-2-2-2-2-2-5-5-5-5-5-5-5-5-|-7-7-7-7-7-7-7\--2-2-2-2-2-2-2-2--|
E|-0-0-0-0-0-0-0-0-3-3-3-3-3-3-3-3-|-5-5-5-5-5-5-5\--0-0-0-0-0-0-0-0--|

e|---------------------------------|----------------------------------|
B|---------------------------------|----------------------------------|
G|---------------------------------|----------------------------------|
D|-2-2-2-2-2-2-2-2-5-5-5-5-5-5-5-5-|-7-7-7-7-7-7-7\--2----------------|
A|-2-2-2-2-2-2-2-2-5-5-5-5-5-5-5-5-|-7-7-7-7-7-7-7\--2----------------|
E|-0-0-0-0-0-0-0-0-3-3-3-3-3-3-3-3-|-5-5-5-5-5-5-5\--0----------------|

Guitar 2 plays the same chords up 7 frets from the A string in the higher octave



[Verse 2]
e|---------------------------------|-----------------------------------|
B|---------------------------------|-----------------------------------|
G|---------------------2-----------|-----------------------------------|
D|-----2-------0-----2---------2---|-----2-------0--------9-------9\---|
A|---2-------2-----0-----0---2-----|---2-------2--------9---9---9------|
E|-0-----0-3-----3---------0-----0-|-0-----0-3-----3-/7-------7--------|

e|---------------------------------|-----------------------------------|------------------|
B|---------------------------------|-----------------------------------|------------------|
G|-----5---------------7-------8\--|-----5-----------------------------|------------------|
D|---5---5-----5-----7---7---9-----|---5---------5---------------------|------------------|
A|-3---------5---5-5-------6-------|-3---------5-----5-----------------|-2-2-2-2-2-2-2-2--|
E|---------3-----------------------|---------3-------------------------|-0-0-0-0-0-0-0-0--|



[Chorus 2]

   Guitar 1
e|---------------------------------|----------------------------------|
B|---------------------------------|----------------------------------|
G|---------------------------------|----------------------------------|
D|-2-2-2-2-2-2-2-2-5-5-5-5-5-5-5-5-|-7-7-7-7-7-7-7\--2-2-2-2-2-2-2-2--|  play 4x
A|-2-2-2-2-2-2-2-2-5-5-5-5-5-5-5-5-|-7-7-7-7-7-7-7\--2-2-2-2-2-2-2-2--|
E|-0-0-0-0-0-0-0-0-3-3-3-3-3-3-3-3-|-5-5-5-5-5-5-5\--0-0-0-0-0-0-0-0--|

Guitar 2 plays the same chords up 7 frets from the A string in the higher octave



[Bridge]

Strum sixteenth note pattern, and hold Em chord at end, during these lyrics:

C5
A catastrophe I'm certain
G5
Hit the lights and drop the courtain
A5                           Em
Organize a mob and rush the door



[Final Chorus]
   Starts with random feedback

   (1:58) play with PM
e|---------------------------------|----------------------------------|
B|---------------------------------|----------------------------------|
G|---------------------------------|----------------------------------|
D|-2-2-2-2-2-2-2-2-5-5-5-5-5-5-5-5-|-7-7-7-7-7-7-7-7-2-2-2-2-2-2-2-2--|  play 2x
A|-2-2-2-2-2-2-2-2-5-5-5-5-5-5-5-5-|-7-7-7-7-7-7-7-7-2-2-2-2-2-2-2-2--|
E|-0-0-0-0-0-0-0-0-3-3-3-3-3-3-3-3-|-5-5-5-5-5-5-5-5-0-0-0-0-0-0-0-0--|

   Let ring
e|---------------------------------|----------------------------------|
B|---------------------------------|----------------------------------|
G|---------------------------------|----------------------------------|
D|-2-2-2-2-2-2-2-2-5-5-5-5-5-5-5-5-|-7-7-7-7-7-7-7-7-2-2-2-2-2-2-2-2--|  play 4x
A|-2-2-2-2-2-2-2-2-5-5-5-5-5-5-5-5-|-7-7-7-7-7-7-7-7-2-2-2-2-2-2-2-2--|
E|-0-0-0-0-0-0-0-0-3-3-3-3-3-3-3-3-|-5-5-5-5-5-5-5-5-0-0-0-0-0-0-0-0--|


************************************

| /   Slide up
| \   Slide down
| PM  Palm mute

************************************

            
            
Suggest correction
Creating personal tab
Creating personal tab
You can edit any tab online and save it as your Personal.

You can edit, replace or remove any tab part or add personal notes – all changes will be seen only by you.

Personal tabs can be accessed anytime from any device, even offline.
Learn more »
Give kudos to tab author, rate the tab!
1 2 3 4 5
comments
print report bad tab
guest
You may want to rate the tab now too:
select rating
Wanna post a correction for this tab? Suggest correction