Oops, an error
Loading. Please wait.

Im Going To Hell For This One bass

version 2
version 2

Whole song

Interactive

by NOFX
2,018 views 1 this week
1 commentread comment
1 2 3 4 5
2 more votes to show rating
add to favorites
×
Save as Personal and add changes to this tab that will be seen only by you. Learn more ›
×
You can save this tab as Personal to edit and correct it or add notes. All changes will be seen only by you. Learn more »
launch autoscroll
font size
0
reset
guitar tuner
edit
Autoscroll
slow
fast
+/-
esc
set tempo
stop
Author
Difficulty
- Nofx - I Am Going To Hell For This One
- Tabbed by Pacu, bassist from a brazilian punk rock band that is called PunkAss.
- Best nofx' song on bass.

__________
Intro [00:24] [1x]
G|---1212--1212--1414--1414--1212--1212--1414--1414--1212--1212--1212--1212------------------------|
D|/14----14----13----13----12----12----11----11----10----10----10----10------1010--1212--1010--1212|
A|-------------------------------------------------------------------------10----10----10----10----|
E|-------------------------------------------------------------------------------------------------|

Verse I [1x]
G|--1212--1212--1212--1212--1212--1212--1414--1414--1212--1212--1212--1212-------------------------|
D|14----14----13----13----12----12----11----11----10----10----10----10------1010--1212--1010--1212-|
A|------------------------------------------------------------------------10----10----10----10-----|
E|-------------------------------------------------------------------------------------------------|


G|--1212--1212--1212--1212--1212--1212--1414--1414--1212--1212--1212--1212----------12>>>>>>>>-|
D|14----14----13----13----12----12----11----11----10----10----10----10-------------------------|
A|------------------------------------------------------------------------10>>>>>>>>-----------|
E|---------------------------------------------------------------------------------------------|

Verse II
G|----------------------------------|----|
D|----------------------------------|----|
A|---------2222222233333333---------|-2x-|
E|-33333333----------------33333333-|----|

G|----------------------------------|----|
D|----------------------------------|----|
A|---------3333333355555555---------|-2x-|
E|-00000000----------------33333333-|----|

Repeat Verse I
Repeat Verse II

Verse III
G|----------------------------------|----------------------------------|----|
D|----------------------------------|----------------------------------|----|
A|-33333333555555556666666677777777-|-333333334444444455555555---------|-1x-|
E|----------------------------------|-------------------------33332222-|----|

G|----------------------------------|-----------------------|----|
D|----------------------------------|-----------------------|----|
A|-33333333555555556666666677777777-|-3333333355555555------|-1x-|
E|----------------------------------|-----------------3~~~~-|----|

Ending [02:32]
G|-------------------------------|----|
D|-------------------------------|----|
A|-7777--6666--5555-5-4444--3333-|-1x-|
E|-------------------------------|----|

G|----------------------------------|----|
D|---------------------------6------|----|
A|--------6666--5555--4444-4---3333-|-1x-|
E|-0000-0---------------------------|----|

G|-------------------------------------|----|
D|-------------------------------------|----|
A|----------6666--5555-5-5-4444-3333-3-|-1x-|
E|-0000-0-0----------------------------|----|

G|--------------------------------------|----|
D|-------------------------------6------|----|
A|----------6666--5555-5--4444-4---3333-|-1x-|
E|-0000-0-0-----------------------------|----|

            
            
Suggest correction
Creating personal tab
Creating personal tab
You can edit any tab online and save it as your Personal.

You can edit, replace or remove any tab part or add personal notes – all changes will be seen only by you.

Personal tabs can be accessed anytime from any device, even offline.
Learn more »
Give kudos to tab author, rate the tab!
1 2 3 4 5
comments
print report bad tab
1 comment total.
0 reply
pacu 2,540 Jun 25, 2012 02:56 PM

I posted this tab long time ago but only today i could see that there's an unknown ending that should never be there hahaha. Just pretend it was never there. I think i was some other tab i was making...
For the record, i'm talking about this part:

Ending [02:32]
G|-------------------------------|----|
D|-------------------------------|----|
A|-7777--6666--5555-5-4444--3333-|-1x-|
E|-------------------------------|----|

G|----------------------------------|----|
D|---------------------------6------|----|
A|--------6666--5555--4444-4---3333-|-1x-|
E|-0000-0---------------------------|----|

G|-------------------------------------|----|
D|-------------------------------------|----|
A|----------6666--5555-5-5-4444-3333-3-|-1x-|
E|-0000-0-0----------------------------|----|

G|--------------------------------------|----|
D|-------------------------------6------|----|
A|----------6666--5555-5--4444-4---3333-|-1x-|
E|-0000-0-0-----------------------------|----|

guest
You may want to rate the tab now too:
select rating
Wanna post a correction for this tab? Suggest correction