Oops, an error
Loading. Please wait.
We have an official Kill All The White Man tab made by UG professional guitarists. Check out the tab »
×
by NOFX
2,275 views 1 this week
no commentswrite comment
1 2 3 4 5
x 4
add to favorites
×
Save as Personal and add changes to this tab that will be seen only by you. Learn more ›
×
You can save this tab as Personal to edit and correct it or add notes. All changes will be seen only by you. Learn more »
launch autoscroll
font size
0
reset
guitar tuner
edit
Autoscroll
slow
fast
+/-
esc
set tempo
stop
Author
Difficulty
intermediate
Title: Kill All The White Man
Artist: NOFX
Album: The Longest Line EP
Tab-Author: z0wee (actually gju but this name has already been taken)


Play this until the bridge part at the end of the song. 
It pauses at about 1:05 and continues shortly after.

G|-------------------------------------------------------------------------|
D|--------------------------------------------------10-10-10-10-10-10-8----|
A|-8-8-8-8---8----8-8-8------8----10~-10-10-10-8------------------------10-|
E|---------8------------8-10---10----------------10------------------------|

The last time play the 8th note on the A string.

G|-------------------|
D|-------------------|
A|-8-----------------|
E|-------------------|

After the bridge lead in with this at about 2:06

G|-------------------|-------------------------|
D|-------------------|-------------------------|
A|-------------------|-------------------------|
E|-1-1-1-1-1-1-1-1-1\|-11-11-11-11-11-11-11-11-|

G|-----------------|-----------------|-----------------|-----------------| 4x
D|-----------------|-----------------|-----------------|-----------------|
A|-3-3-3-3-3-3-3-3-|-----------------|-5-5-5-5-5-5-5-5-|-8-8-8-8-8-8-8-8-|
E|-----------------|-3-3-3-3-3-3-3-3-|-----------------|-----------------|

G|-----------------|
D|-----------------|
A|-3---3-----------|
E|-----------------|


Have fun!

            
            
Suggest correction
Creating personal tab
Creating personal tab
You can edit any tab online and save it as your Personal.

You can edit, replace or remove any tab part or add personal notes – all changes will be seen only by you.

Personal tabs can be accessed anytime from any device, even offline.
Learn more »
comments
print report bad tab
guest
You may want to rate the tab now too:
select rating
Wanna post a correction for this tab? Suggest correction