Oops, an error
Loading. Please wait.

Leaving Jesusland tab

version 1
version 1

Whole song

Interactive

by NOFX
5,207 views 1 this week
2 commentsread comments
1 2 3 4 5
2 more votes to show rating
add to favorites
×
Save as Personal and add changes to this tab that will be seen only by you. Learn more ›
×
You can save this tab as Personal to edit and correct it or add notes. All changes will be seen only by you. Learn more »
launch autoscroll
font size
0
reset
how to read this tab
guitar tuner
edit
Autoscroll
slow
fast
+/-
esc
set tempo
stop
-------------------------------------------------------------------------------
                             Leaving Jesusland - NOFX
-------------------------------------------------------------------------------
Tabbed by:Scott

Email:WorldChmpcyclist@aol.com

Tuning:Standard low to high: E-A-D-G-B-E

A tab in standard tuning...best song on Wolves In Wolves' Clothing!

Intro/Main Riff
e|---------------------------------------------------------------------------|
B|---------------------------------------------------------------------------|
G|---------------------------------------------------------------------------|
D|---------------------------------------------------------------------------|
A|77777777-33333333-5555-2222-22-33------------------------------------------|
E|55555555-11111111-3333-0000-44-55------------------------------------------|
pm........ ........ .... .... .. ..

Pre-Verse
e|---------|
B|---#-*---|
G|-10-2---*|
D|-10-2-10-|
A|-8--0-10-|
E|------8--|

Verse
e|----------------------|
B|-----------*--------*-|
G|---------10--------3--|
D|7-77-101010-5-55-333--|
A|7-77-10108--5-55-331--|
E|5-55-8-8----3-33-11---|

Post Verse
e|---------------------------------------------------------------------------|
B|---------------------------------------------------------------------------|
G|9999999----------------5~--------------------------------------------------|
D|999999977777777333333335---------------------------------------------------|
A|777777777777777333333333---------------------------------------------------|
E|-------5555555511111111----------------------------------------------------|

Main Riff X2

Interlude (im just gonna give you the rhythm chords becuse i couldnt figure out the lead)
e|---------------------------|
B|---------------------------|
G|17---16---14---12---14---16|
D|---------------------------|
A|15---14---12---10---12---14|
E|---------------------------|

| *  Play  8x
| #  Play 16x
| /  slide up
| \  slide down
| h  hammer-on
| p  pull-off
| ~  vibrato
| +  harmonic
| x  Mute note
===============================================================================

            
            
Suggest correction
Creating personal tab
Creating personal tab
You can edit any tab online and save it as your Personal.

You can edit, replace or remove any tab part or add personal notes – all changes will be seen only by you.

Personal tabs can be accessed anytime from any device, even offline.
Learn more »
Give kudos to tab author, rate the tab!
1 2 3 4 5
comments
print report bad tab
2 comments total.
0 reply
Idiot_Son 700 Aug 14, 2006 08:35 AM

Hmm.. this looks similar to my one... but it duzn't seem quite right...

0 reply
georgemcardle 35 Sep 27, 2006 10:30 AM

e|--------------------|
B|--------------------|
G|--------------------|
D|--7--3--5--2--6--7--|
A|--7--3--5--2--6--7--|
E|--5--1--3--0--4--5--|

guest
Wanna post a correction for this tab? Suggest correction