Oops, an error
Loading. Please wait.

Marxist Brothers tab

version 1
version 1

Whole song

Interactive

by NOFX
4,070 views 3 this week
3 commentsread comments
1 2 3 4 5
x 4
add to favorites
×
Save as Personal and add changes to this tab that will be seen only by you. Learn more ›
×
You can save this tab as Personal to edit and correct it or add notes. All changes will be seen only by you. Learn more »
launch autoscroll
font size
0
reset
how to read this tab
guitar tuner
edit
Autoscroll
slow
fast
+/-
esc
set tempo
stop
Difficulty
dont know if its exactly right, i was looking for a tab for this song and didnt find one 
i tried it myself and it wasnt taht hard, easy song to play.

-7-7-7-7--8--8--8--8-----------------|
-8-8-8-8--8--8--8--8-----------------|
-9-9-9-9--9--9--9--9      {repeat 11-| times i think, listen to hear it}
-9-9-9-9--10-10-10-10----------------|
-------------------------------------|
-------------------------------------|


-----------------------------------------|
-----------------------------------------|
-----4~------5~--2~--7~----------2~--7~--|    {slow part}
-5~--4~--2~--5~--2~--7~--5~--2~--2~--7~--|
-5~--2~--2~--3~--0~--5~--5~--2~--0~--5~--|
-3~------0~--------------3~--0~----------|


-9---9---9---9---10--10--10--10-|
-10--10--10--10--10--10--10--10-|
-11--11--11--11--11--11--11--11-|    {next verse}
-11--11--11--11--12--12--12--12-|
--------------------------------|
--------------------------------|


-----------------------------------------|
-----------------------------------------|
-----4~------5~--2~--7~----------2~--7~--|    {slow part again}
-5~--4~--2~--5~--2~--7~--5~--2~--2~--7~--|
-5~--2~--2~--3~--0~--5~--5~--2~--0~--5~--|
-3~------0~--------------3~--0~----------|


-----------------------------------------------------------|
-----------------------------------------------------------|
-------------------7777777777777777------------------------|
-4444444444444444--7777777777777777     {part before solo--|
-4444444444444444--5555555555555555------------------------|
-2222222222222222------------------------------------------|


thats it. not hard, sorry i dont have the solo ill try and get it up soon, any questions 
me @ StuffyPuffy617@AOL.com
or my myspace is www.myspace.com/jeremiahac
thanks

            
            
Suggest correction
Creating personal tab
Creating personal tab
You can edit any tab online and save it as your Personal.

You can edit, replace or remove any tab part or add personal notes – all changes will be seen only by you.

Personal tabs can be accessed anytime from any device, even offline.
Learn more »
comments
print report bad tab
3 comments total.
0 reply
blink182_4_life 372 Jul 27, 2006 04:04 AM

good tab. sounds fine 2 me when i play it

0 reply
Halfmastmutiny 40 Jan 03, 2008 08:51 AM

are you gonna tab out the solo as well?

0 reply
LeftoverVictim6 10 Oct 04, 2008 07:28 PM

-----------------------------------------|this is what the second slow part
-----------------------------------------|should be. all the chords that this guy
-----6~------7~--4~--9~----------4~--9~--| said should be played two frets up.
-7~--6~--4~--7~--4~--9~--7~--4~--4~--9~--|
-7~--4~--4~--5~--2~--7~--7~--4~--2~--7~--|
-5~------2~--------------5~--2~----------|

guest
Wanna post a correction for this tab? Suggest correction