Oops, an error
Loading. Please wait.
We have an official Seeing Double At The Triple Rock tab made by UG professional guitarists. Check out the tab »
×
by NOFX
75,983 views 42 this week
6 commentsread comments
1 2 3 4 5
x 32
add to favorites
×
Save as Personal and add changes to this tab that will be seen only by you. Learn more ›
×
You can save this tab as Personal to edit and correct it or add notes. All changes will be seen only by you. Learn more »
launch autoscroll
font size
0
reset
how to read this tab
guitar tuner
edit
Autoscroll
slow
fast
+/-
esc
set tempo
stop
Author
[Intro] 
(4x)                                  1st-3rd last time
e|-----------------------------------------|-------|---------|
B|-----------------------------------------|-------|---------|
G|-----------------------------------------|-------|---------|
D|----5-------5-----5---7p5------5-------5-|-77----|-777-----|
A|-77---7-5h7----77---7-------77---7-5h7---|-55-77-|-555-7-5-|
E|-----------------------------------------|----55-|-----5-3-|

[Riff]
(4x)                                   1st/3rd 2nd end last time
e|-----------------------------------------|-------|-------|---------|
B|-----------------------------------------|-------|-------|---------|
G|-----------------------------------------|-------|-------|---------|
D|----5-------5-----5---7p5------5-------5-|-77----|-77-88-|-777-----|
A|-77---7-5h7----66---7-------55---7-5h7---|-55-77-|-55-66-|-555-7-5-|
E|-----------------------------------------|----55-|-------|-----5-3-|

[Verse]
e|-----------------------------------|
B|-----------------------------------|
G|-------7#--------------7#-9x9-999\-|
D|-2#-5#-7--7#-----2#-5#-7--9x9-999\-|
A|-2--5--5--7------2--5--5--7-7-777\-|
E|-0--3-----5--3b--0--3--------------|

e|-----------------------------|
B|-----------------------------|
G|-------7*--------------7*-9*-|
D|-2*-5*-7--7*-----2*-5*-7--9--|
A|-2--5--5--7------2--5--5--7--|
E|-0--3-----5--3b--0--3--------|

[Chorus]
e|--------------0---------|
B|--------------1***------|
G|-5*-7*----9*--2---------|
D|-5--7--9*-9---2----fill-|
A|-3--5--6--7---0---------|
E|--------------------3b--|

[Riff] x2
(4x)                                   1st/3rd 2nd end last time
e|-----------------------------------------|-------|-------|---------|
B|-----------------------------------------|-------|-------|---------|
G|-----------------------------------------|-------|-------|---------|
D|----5-------5-----5---7p5------5-------5-|-77----|-77-88-|-777-----|
A|-77---7-5h7----66---7-------55---7-5h7---|-55-77-|-55-66-|-555-7-5-|
E|-----------------------------------------|----55-|-------|-----5-3-|

[Verse]
e|-----------------------------------|
B|-----------------------------------|
G|-------7#--------------7#-9x9-999\-|
D|-2#-5#-7--7#-----2#-5#-7--9x9-999\-|
A|-2--5--5--7------2--5--5--7-7-777\-|
E|-0--3-----5--3b--0--3--------------|

e|-----------------------------|
B|-----------------------------|
G|-------7*--------------7*-9*-|
D|-2*-5*-7--7*-----2*-5*-7--9--|
A|-2--5--5--7------2--5--5--7--|
E|-0--3-----5--3b--0--3--------|

[Chorus]
e|--------------0---------|
B|--------------1***------|
G|-5*-7*----9*--2---------|
D|-5--7--9*-9---2----fill-|
A|-3--5--6--7---0---------|
E|--------------------3b--|

[Bridge]
e|-------------|-0~-0~-3~-0~ 2x|-0--0-----|
B|-------------|-1--1--3--0----|-1*-1*----|
G|-5*-------9*-|-2--0--0--0----|-2--0-----|
D|-5--5*-9*-9--|-2--2--0--2----|-2--2-----|
A|-3--5--6--7--|-0--3--2--2----|-0--3-----|
E|----3--------|-------3--0----|-------3b-|

(repeat riff 2x. end on this)
e|-----|
B|-----|
G|-----|
D|-2~--|
A|-2---|
E|-0---|


************************************

| p  Pull-off
| h  Hammer-on
| x  Dead note
| \  Slide down
| b  Bend
| *  Natural harmonic
| ~  Vibrato

************************************

            
            
Suggest correction
Creating personal tab
Creating personal tab
You can edit any tab online and save it as your Personal.

You can edit, replace or remove any tab part or add personal notes – all changes will be seen only by you.

Personal tabs can be accessed anytime from any device, even offline.
Learn more »
comments
print report bad tab
6 comments total. Showing first comments.
+1 reply
Guitarpunk919 20 Apr 09, 2006 11:38 AM

good song, just listened to it.
good tab too.

+1 reply
closmurda 31 Apr 18, 2006 02:40 PM

Great song, just saw the video today, not dissapointed. That intro riff is tough though, Hefe is a mad man.

+3 reply
closmurda 31 Apr 20, 2006 02:50 PM

i think the intro is easier if you play it like this:
D|-------------------------7p5
A|-7-7-10-7--7-10-7-7-10-7-
E|---------10------------------

hammering on the 10's with your pinky finger. you could also play the 7p5 like 12p10 on the A string. which ever feels more comfortable. i hope that tabs comes out write when I post it.

guest
You may want to rate the tab now too:
select rating
Wanna post a correction for this tab? Suggest correction