Oops, an error
Loading. Please wait.

Shut Up Already tab

version 1
version 1

Whole song

Interactive

by NOFX
1,591 views 1 this week
no commentswrite comment
1 2 3 4 5
x 3
add to favorites
×
Save as Personal and add changes to this tab that will be seen only by you. Learn more ›
×
You can save this tab as Personal to edit and correct it or add notes. All changes will be seen only by you. Learn more »
launch autoscroll
font size
0
reset
how to read this tab
guitar tuner
edit
Autoscroll
slow
fast
+/-
esc
set tempo
stop
Author
-------------------------------------------------------------------------------
                             Shut Up Already - NOFX
-------------------------------------------------------------------------------
| !  Pinch harmonic
| /  slide up
| \  slide down
| h  hammer-on
| p  pull-off
| ~  vibrato
| +  harmonic
| x  Mute note

Intro

Guitar 1

play as many times as needed
e|-----------------------------------------------------------------------------|
B|-----------------------------------------------------------------------------|
G|-2x--------------------------------------------------------------------------|
D|-2x--------------------------------------------------------------------------|
A|-0x--------------------------------------------------------------------------|
E|-----------------------------------------------------------------------------|

Guitar 2

e|-----------------------------------------------5-5------------|
B|-----------------------------------------------5-5------------|
G|-2--5----2-2-----2--5----2-2-----2--5----2-2--2-2--2--5-------|
D|-2--5----2-2-----2--5----2-2-----2--5----2-2-------2--5-------|
A|-0--3----0-0-----0--3----0-0-----0--3----0-0-------0--3-------|
E|--------------------------------------------------------------|

e|--------------------------------------------------------------|
B|--------------------------------------------------------------|
G|-2---5---7-------2---5---7------------------------------------|
D|-2---5---7---7---2---5---7---7-7-5-7--------------------------|
A|-0---3---5---7---0---3---5---7-7-5-7--------------------------|
E|--------------5---------------5-5-3-5-------------------------|

Intro part 2-

Guitar 1-

e|-------------------------------------------------------------------------------|
B|-------------------------------------------------------------------------------|
G|-------------------------------------------------------------------------------|
D|-2-2--------------------------2-2----------------------------------------------|
A|-2-2--------------------------2-2----------------------------------------------|
E|-0-0--------------------------0-0---------------pickslide----------------------|

Guitar 2-

e|-------------------------------------------------------------------|
B|-------------------------------------------------------------------|
G|-9-9-9-7-9--14-14-12-14-12--9-9-9-7-----14-14-12-14-12-------------|
D|-9-9-9-7-9--14-14-12-14-12--9-9-9-7-9!--14-14-12-14-12-------------|
A|-7-7-7-5-7--12-12-10-12-10--7-7-7-5-----12-12-10-12-10-------------|
E|-------------------------------------------------------------------|

then:

Guitar 1-

e|------------------------------------------------------------------|
B|------------------------------------------------------------------|
G|-----9-7-9------------------9-7-9---------------------------------|
D|-2-2-9-7-9--7-7-5-7-5--2-2-9-7-9--7-7-5-7-5-----------------------|
A|-2-2-7-5-7--7-7-5-7-5--2-2-7-5-7--7-7-5-7-5-----------------------|
E|-0-0---------5-5-3-5-3--0-0--------5-5-3-5-3----------------------|

Guitar 2-

e|------------------------------------------------------------------|
B|------------------------------------------------------------------|
G|-9-9-9-7-9--14-14-12-14-12--9-9-9-7-9--14-14-12-14-12-------------|
D|-9-9-9-7-9--14-14-12-14-12--9-9-9-7-9--14-14-12-14-12-------------|
A|-7-7-7-5-7--12-12-10-12-10--7-7-7-5-7--12-12-10-12-10-------------|
E|------------------------------------------------------------------|

Verse

Guitar 1-

e|------------------------------------------------------------------|
B|------------------------------------------------------------------|
G|-----9-7-9------------------9-7-9---------------------------------|
D|-2-2-9-7-9--7-7-5-7-5--2-2-9-7-9--7-7-5-7-5-----------------------|
A|-2-2-7-5-7--7-7-5-7-5--2-2-7-5-7--7-7-5-7-5-----------------------|
E|-0-0---------5-5-3-5-3--0-0--------5-5-3-5-3----------------------|x2

Guitar 2-

e|------------------------------------------------------------------|
B|------------------------------------------------------------------|
G|-9-9-9-7-9--14-14-12-14-12--9-9-9-7-9--14-14-12-14-12-------------|
D|-9-9-9-7-9--14-14-12-14-12--9-9-9-7-9--14-14-12-14-12-------------|
A|-7-7-7-5-7--12-12-10-12-10--7-7-7-5-7--12-12-10-12-10-------------|
E|------------------------------------------------------------------|x2

Chorus-

Guitar 1-

e|------------------------------------------------------------------------------|
B|------------------------------------------------------------------------------|
G|-10---------12----------------------------------------------------------------|
D|-10---------12---------10--------7--------------------------------------------|
A|--8---------10---------10--------7--------------------------------------------|
E|------------------------8---------5-------------------------------------------|

Guitar 2-

e|------------------------------------------------------------------------------|
B|------------------------------------------------------------------------------|
G|-10---------------------------------------------------------------------------|
D|-10--------5-----------10--------7--------------------------------------------|
A|--8--------5-----------10--------7--------------------------------------------|
E|-----------3------------8---------5-------------------------------------------|

then-

Guitar 1-

e|------------------------------------------------------------------------------|
B|------------------------------------------------------------------------------|
G|-10-------12------------5-----4-----------------------------------------------|
D|-10-------12------------5-----4--7--------------------------------------------|
A|--8-------10------------3-----2--7--------------------------------------------|
E|----------------------------------5-------------------------------------------|

Guitar 2-

e|-----------------------------------------------------------------------------|
B|-----------------------------------------------------------------------------|
G|-10---------------------5-----4----------------------------------------------|
D|-10---------5-----------5-----4-7--------------------------------------------|
A|--8---------5-----------3-----2-7--------------------------------------------|
E|------------3--------------------5-------------------------------------------|

post chorus-

Guitar 1-

e|-----------------------------------------------------------------------------|
B|-----------------------------------------------------------------------------|
G|-5---5---5------------5---5---5----------------------------------------------|
D|-5-5-5-5-5-5--3x------5-5-5-5-5-5--7-----------------------------------------|
A|-3-5-3-5-3-5--3x-(x10)-3-5-3-5-3-5--7-(x8)-----------------------------------|
E|---3---3----3--1x--------3---3---3--5----------------------------------------|

Guitar 2-

e|-----------------------------------------------------------------------------|
B|-----------------------------------------------------------------------------|
G|-5---5---5------------5---5---5----------------------------------------------|
D|-5-5-5-5-5-5--3x------5-5-5-5-5-5-------7------------------------------------|
A|-3-5-3-5-3-5--3x-(x10)-3-5-3-5-3-5----7--------------------------------------|
E|---3---3----3--1x--------3---3---3--5----------------------------------------|

then-

Both guitars-

e|-----------------------------------------------------------------------------|
B|-----------------------------------------------------------------------------|
G|-5---5---5------------5---5---5----------------------------------------------|
D|-5-5-5-5-5-5--3x------5-5-5-5-5-5--7-7---------------------------------------|
A|-3-5-3-5-3-5--3x-(x10)-3-5-3-5-3-5--7-7--------------------------------------|
E|---3---3----3--1x--------3---3---3--5-5--------------------------------------|

Guitar 2-

e|---------------------------------------------------------------|
B|---------------------------------------------------------------|
G|--9-7-9--14-14-12-14-12--9-9-9-7-----14-14-12-14-12------------|
D|--9-7-9--14-14-12-14-12--9-9-9-7-9!--14-14-12-14-12------------|
A|--7-5-7--12-12-10-12-10--7-7-7-5-----12-12-10-12-10------------|
E|---------------------------------------------------------------|

then:

Guitar 1-

e|------------------------------------------------------------------|
B|------------------------------------------------------------------|
G|-----9-7-9------------------9-7-9---------------------------------|
D|-2-2-9-7-9--7-7-5-7-5--2-2-9-7-9--7-7-5-7-5-----------------------|
A|-2-2-7-5-7--7-7-5-7-5--2-2-7-5-7--7-7-5-7-5-----------------------|
E|-0-0---------5-5-3-5-3--0-0--------5-5-3-5-3----------------------|

Guitar 2-

e|------------------------------------------------------------------|
B|------------------------------------------------------------------|
G|-9-9-9-7-9--14-14-12-14-12--9-9-9-7-9--14-14-12-14-12-------------|
D|-9-9-9-7-9--14-14-12-14-12--9-9-9-7-9--14-14-12-14-12-------------|
A|-7-7-7-5-7--12-12-10-12-10--7-7-7-5-7--12-12-10-12-10-------------|
E|------------------------------------------------------------------|

Verse

Guitar 1-

e|------------------------------------------------------------------|
B|------------------------------------------------------------------|
G|-----9-7-9------------------9-7-9---------------------------------|
D|-2-2-9-7-9--7-7-5-7-5--2-2-9-7-9--7-7-5-7-5-----------------------|
A|-2-2-7-5-7--7-7-5-7-5--2-2-7-5-7--7-7-5-7-5-----------------------|
E|-0-0---------5-5-3-5-3--0-0--------5-5-3-5-3----------------------|x2

Guitar 2-

e|------------------------------------------------------------------|
B|------------------------------------------------------------------|
G|-9-9-9-7-9--14-14-12-14-12--9-9-9-7-9--14-14-12-14-12-------------|
D|-9-9-9-7-9--14-14-12-14-12--9-9-9-7-9--14-14-12-14-12-------------|
A|-7-7-7-5-7--12-12-10-12-10--7-7-7-5-7--12-12-10-12-10-------------|
E|------------------------------------------------------------------|x2

Chorus-

Guitar 1-

e|------------------------------------------------------------------------------|
B|------------------------------------------------------------------------------|
G|-10---------12----------------------------------------------------------------|
D|-10---------12---------10--------7--------------------------------------------|
A|--8---------10---------10--------7--------------------------------------------|
E|------------------------8---------5-------------------------------------------|

Guitar 2-

e|------------------------------------------------------------------------------|
B|------------------------------------------------------------------------------|
G|-10---------------------------------------------------------------------------|
D|-10--------5-----------10--------7--------------------------------------------|
A|--8--------5-----------10--------7--------------------------------------------|
E|-----------3------------8---------5-------------------------------------------|

then-

Guitar 1-

e|------------------------------------------------------------------------------|
B|------------------------------------------------------------------------------|
G|-10-------12------------5-----4-----------------------------------------------|
D|-10-------12------------5-----4--7--------------------------------------------|
A|--8-------10------------3-----2--7--------------------------------------------|
E|----------------------------------5-------------------------------------------|

Guitar 2-

e|-----------------------------------------------------------------------------|
B|-----------------------------------------------------------------------------|
G|-10---------------------5-----4----------------------------------------------|
D|-10---------5-----------5-----4-7--------------------------------------------|
A|--8---------5-----------3-----2-7--------------------------------------------|
E|------------3--------------------5-------------------------------------------|

post chorus-

Guitar 1-

e|-----------------------------------------------------------------------------|
B|-----------------------------------------------------------------------------|
G|-5---5---5------------5---5---5----------------------------------------------|
D|-5-5-5-5-5-5--3x------5-5-5-5-5-5--7-----------------------------------------|
A|-3-5-3-5-3-5--3x-(x10)-3-5-3-5-3-5--7-(x8)-----------------------------------|
E|---3---3----3--1x--------3---3---3--5----------------------------------------|

Guitar 2-

e|-----------------------------------------------------------------------------|
B|-----------------------------------------------------------------------------|
G|-5---5---5------------5---5---5----------------------------------------------|
D|-5-5-5-5-5-5--3x------5-5-5-5-5-5-------7------------------------------------|
A|-3-5-3-5-3-5--3x-(x10)-3-5-3-5-3-5----7--------------------------------------|
E|---3---3----3--1x--------3---3---3--5----------------------------------------|

then-

Both guitars-

e|-----------------------------------------------------------------------------|
B|-----------------------------------------------------------------------------|
G|-5---5---5------------5---5---5----------------------------------------------|
D|-5-5-5-5-5-5--3x------5-5-5-5-5-5--7-----------------------------------------|
A|-3-5-3-5-3-5--3x-(x10)-3-5-3-5-3-5--7----------------------------------------|
E|---3---3----3--1x--------3---3---3--5----------------------------------------|

Guitar 1-
play as many times as needed
e|---------------------------------------------------------------------------|
B|---------------------------------------------------------------------------|
G|-2x------------------------------------------------------------------------|
D|-2x------------------------------------------------------------------------|
A|-0x------------------------------------------------------------------------|
E|---------------------------------------------------------------------------|

Outro-

Guitar 2-
black dog by led zep rip off

e|-----------------------------------------------------------------------------|
B|-----------------------------------------------------------------------------|
G|-----------5----7h9-5h7p5------5---------------------------------------------|
D|---5-6-7-----7-------------7-7---7-5-7-7------------2------------------------|
A|-7-------7--------------------------------5-7-3-5-0-0------------------------|
E|-----------------------------------------------------------------------------|

e|---------------------------------------------------------------------------|
B|---------------------------------------------------------------------------|
G|------------5--------------------------------------------------------------|
D|---5-6-7------7------------------------------------------------------------|
A|-7-------7-----------------------------------------------------------------|
E|---------------------------------------------------------------------------|

            
            
Suggest correction
Creating personal tab
Creating personal tab
You can edit any tab online and save it as your Personal.

You can edit, replace or remove any tab part or add personal notes – all changes will be seen only by you.

Personal tabs can be accessed anytime from any device, even offline.
Learn more »
Give kudos to tab author, rate the tab!
1 2 3 4 5
comments
print report bad tab
guest
You may want to rate the tab now too:
select rating
Wanna post a correction for this tab? Suggest correction