Oops, an error
Loading. Please wait.

The Agony Of Victory bass

version 1
version 1

Whole song

Interactive

by NOFX
964 views 1 this week
no commentswrite comment
1 2 3 4 5
1 last vote to show rating
add to favorites
×
Save as Personal and add changes to this tab that will be seen only by you. Learn more ›
×
You can save this tab as Personal to edit and correct it or add notes. All changes will be seen only by you. Learn more »
launch autoscroll
font size
0
reset
guitar tuner
edit
Autoscroll
slow
fast
+/-
esc
set tempo
stop
Author
++++++++++++++++++++++++++++++
| NOFX- The Agony Of Victory |
++++++++++++++++++++++++++++++


"Come on, dance like a retard..."

Tuning: EADG

Verse
"Come on underachievers..."
1.
G|------------------------------------------------------------|
D|--------------------------------------5~----4~----3~--------|
A|-3~----5~----------3~---------------------------------------|--x2
E|-------------3~----------1~----/4~--------------------------|

"Once you stop yourself from caring..."
2.
G|-----------------------------------------------------------------|
D|-----------------------------------------------------------------|
A|-333-3333-33-333-555-5555-55-555-----------------333-3333-33-333-|
E|---------------------------------333-3333-33-333-----------------|

"Cuz all the things we want are cheap or free..."
3.
G|-------------------------------------------------------------------------------------------------|
D|---------------------------------555-5555-55-555-444-4444-44-444-333-3333-33-333-333-3333-33-333-|
A|-------------------------------------------------------------------------------------------------|
E|-111-1111-11-111-444-4444-44-444-----------------------------------------------------------------|

Bridge
4.
G|-----------------------------------------------------------------|
D|-----------------------------------------------------------------|
A|-333-3333-33-333-555-5555-55-555-----------------333-3333-33-333-|
E|---------------------------------333-3333-33-333-----------------|

5.
G|-------------------------------------------------------------------------------------------------|
D|---------------------------------555-5555-55-555-444-4444-44-444-333-3333-33-333-333-3333-33-333-|
A|-------------------------------------------------------------------------------------------------|
E|-111-1111-11-111-444-4444-44-444-----------------------------------------------------------------|

Verse
"We've got no competition..."
6.
G|-----------------------------------------------------------------|
D|-----------------------------------------------------------------|
A|-333-3333-33-333-555-5555-55-555-----------------333-3333-33-333-|
E|---------------------------------333-3333-33-333-----------------|

"We just wanna live and let others live..."
7.
G|-------------------------------------------------------------------------------------------------|
D|---------------------------------555-5555-55-555-444-4444-44-444-333-3333-33-333-333-3333-33-333-|
A|-------------------------------------------------------------------------------------------------|
E|-111-1111-11-111-444-4444-44-444-----------------------------------------------------------------|

"Come on, dance like a retard..."
8.
G|---------------------------------------------------------------------------------|
D|---------------------------------------------------------------------------------|
A|-3-3-33333-5-5-55555-----------3~--3~-3~-------------------------------0-0-00000-|
E|---------------------3-3-33333-----------1-1-11111-4-4-44444-0-0-00000-----------|

Outro
9.
G|-----------------------------------|
D|-----------------------------------|
A|-----------------------------------|
E|-1~--------------------------------|


Lyrics:


Come on underachievers
Come on all you underpass believers
We'll give you the skill for street livin'
It feels pretty great to just give in, 
so just give in

Dropouts, repeat offenders
We'll take the weary, weak, the street bartenders
Show 'em the best times are on the street
Satisfaction through the thrill of defeat, 
ain't it sweet

Once you stop yourself from caring
About owning stuff, that's when you wanna start sharing
Cuz all the things we want are cheap or free
I define success as not working 
and I live like a king

We've got no competition
We've got no accomplished mission
We just wanna live and let others live
Of course we'll take anything you wanna give, 
so fucking give

Come on, dance like a retard
Life's an endless party not a punch card
I don't understand some people's drive
Let's just fuck and drink and be alive, 
not just survive



+++++++++++++++++++++++++++++++++
| RaiLeff                       |
| Underground__Dora@Hotmail.Com |
+++++++++++++++++++++++++++++++++

            
            
Suggest correction
Creating personal tab
Creating personal tab
You can edit any tab online and save it as your Personal.

You can edit, replace or remove any tab part or add personal notes – all changes will be seen only by you.

Personal tabs can be accessed anytime from any device, even offline.
Learn more »
Give kudos to tab author, rate the tab!
1 2 3 4 5
comments
print report bad tab
guest
You may want to rate the tab now too:
select rating
Wanna post a correction for this tab? Suggest correction