Oops, an error
Loading. Please wait.

The Irrationality Of Rationality chords

version 1
version 1

Whole song

Interactive

by NOFX
673 views 3 this week
no commentswrite comment
1 2 3 4 5
3 more votes to show rating
add to favorites
×
Save as Personal and add changes to this tab that will be seen only by you. Learn more ›
×
You can save this tab as Personal to edit and correct it or add notes. All changes will be seen only by you. Learn more »
launch autoscroll
font size
0
reset
transpose
0
reset
display chords
guitar tuner
edit
Autoscroll
slow
fast
+/-
esc
set tempo
stop
Author
Difficulty
Strumming
There is no strumming pattern for this song yet. and get +5 IQ
Four options for the Am riff:

Option 1:
e|-----------------------------------|
B|-----------------------------------|
G|-----------------------------------|
D|-------------------------3---------|
A|--0-0-0-0-0-0-0-0-0----------------|
E|-----------------------3---3-------|

Option 2:
e|--0-0-0-0-0-0-0-0-0----------------|
B|--1-1-1-1-1-1-1-1-1----------------|
G|--2-2-2-2-2-2-2-2-2----------------|
D|--2-2-2-2-2-2-2-2-2------3---------|
A|--0-0-0-0-0-0-0-0-0----------------|
E|-----------------------3---3-------|

Option 3:
e|--0-0-0-0-0-0-0-0-0----------------|
B|--1-1-1-1-1-1-1-1-1----------------|
G|--2-2-2-2-2-2-2-2-2------5---------|
D|--2-2-2-2-2-2-2-2-2----5-3-5-------|
A|--0-0-0-0-0-0-0-0-0----5---5-------|
E|-----------------------3---3-------|

Option 4:
e|--0-0-0-0-0-0-0-0-0----3-1-3-------|
B|--1-1-1-1-1-1-1-1-1----3-1-3-------|
G|--2-2-2-2-2-2-2-2-2----0-2-0-------|
D|--2-2-2-2-2-2-2-2-2----0-3-0-------|
A|--0-0-0-0-0-0-0-0-0----2-3-2-------|
E|-----------------------3-1-3-------|



Intro:
Am riff x5


Verse:
Am     C          F       F             Am riff x2
Frank, the new CEO had to answer to the board.
    Am                C       F        F
The board was getting anxious, and the shareholders were



Chorus:
C         Am           G               C
On a bed, legs in air, ass-cheeks open wide
C               Am                  G                  C
They were about to get fucked like it was their first time.
     C            G           F                C
When one makes 20 million, ten thousand people lose.
     C                   G            Am riff x 4
What keeps that one from swallowing a shotgun?


Verse:
Am         C       F           F            Am riff x2
Dan, the company man, felt loyalty to the corp.
      Am          C       F      F
After 16 years of service, and a family to support


Chorus
C       Am  G          C
He actually started to believe 
    C            Am                 G             C
The weaponry and chemicals were for national defense.
       C           G               F              C
'Cause Danny had a mortgage, and a boss to answer to.
C                     G                      Am riff x 1   Am G G C~
The guilty don't feel guilty, they learn not to.


Bridge:
Am C F F


Verse:
Am        C              F      F              Am riff x2
Helen is living in her car, trying to feed her kids.
Am                  C    F        F
She got laid off at work, and her house was repossessed.


Chorus
C            Am                      G       C
It's hard to think clearly when it's 38 degrees.
C                 Am                G                C
Desperate people have been known to render desperate deeds.
    C                  G          F                C
But when she shot that family and moved into their home,
    C              G             C~
The paper read she suffered from dementia.


Outro:
G F G   Am Am

            
            
Suggest correction
Creating personal tab
Creating personal tab
You can edit any tab online and save it as your Personal.

You can edit, replace or remove any tab part or add personal notes – all changes will be seen only by you.

Personal tabs can be accessed anytime from any device, even offline.
Learn more »
Give kudos to tab author, rate the tab!
1 2 3 4 5
comments
print report bad tab
guest
You may want to rate the tab now too:
select rating
Wanna post a correction for this tab? Suggest correction