Oops, an error
Loading. Please wait.
We have an official The Longest Line tab made by UG professional guitarists. Check out the tab »
×
by NOFX
1,589 views 6 this week
no commentswrite comment
1 2 3 4 5
1 last vote to show rating
add to favorites
×
Save as Personal and add changes to this tab that will be seen only by you. Learn more ›
×
You can save this tab as Personal to edit and correct it or add notes. All changes will be seen only by you. Learn more »
launch autoscroll
font size
0
reset
guitar tuner
edit
Autoscroll
slow
fast
+/-
esc
set tempo
stop
Author
Difficulty
I'm pretty sure this is 100% correct. The amount of times each note is played in 
the chorus might be a little off. Key: ~ = Let ring

(In the darkest tunnels...)
G----------------------------------------------------------------|
D----------------------------------------------------------------|
A-3-3-3-3-3-3-3-3------------------------------------------------|
E-----------------3-3-3-3-3-3-3-3-5-5-5-5-5-5-5-5-5-5-5-5-5-5-3-3|

(Like the one thats...)
G------------------------------------------------------------|
D------------------------------------------------------------|
A-3-3-3-3-3-3-3-3--------------------------------------------|
E-----------------3-3-3-3-3-3-3-3-1-1-1-1-1-1-1-1-1-1-1-5-3--|

(It would be nice...)
G----------------------------------------------------------------|
D----------------------------------------------------------------|
A-3-3-3-3-3-3-3-3------------------------------------------------|
E-----------------3-3-3-3-3-3-3-3-5-5-5-5-5-5-5-5-5-5-5-5-5-5-3-3|

(Don't think I'll ever...)
G------------------------------------------------------------|
D------------------------------------------------------------|
A-3-3-3-3-3-3-3-3--------------------------------------------|
E-----------------3-3-3-3-3-3-3-3-1-1-1-1-1-1-1-1-1-1-1-5-3--|

(I must have..)
G---------|
D---------|
A---------|
E-1~3~5~6~|

(I think of Chineese food...)
G----------------------------------------------------------------|
D----------------------------------------------------------------|
A-3-3-3-3-3-3-3-3------------------------------------------------|
E-----------------3-3-3-3-3-3-3-3-5-5-5-5-5-5-5-5-5-5-5-5-5-5-3-3|

(My life is sweet as...)
G------------------------------------------------------------|
D------------------------------------------------------------|
A-3-3-3-3-3-3-3-3--------------------------------------------|
E-----------------3-3-3-3-3-3-3-3-1-1-1-1-1-1-1-1-1-1-1-5-3--|

(You know, three week...)
G----------------------------------------------------------------|
D----------------------------------------------------------------|
A-3-3-3-3-3-3-3-3------------------------------------------------|
E-----------------3-3-3-3-3-3-3-3-5-5-5-5-5-5-5-5-5-5-5-5-5-5-3-3|

(I am the one...)
G------------------------------------------------------------|
D------------------------------------------------------------|
A-3-3-3-3-3-3-3-3--------------------------------------------|
E-----------------3-3-3-3-3-3-3-3-1-1-1-1-1-1-1-1-1-1-1-5-3--|

(I must have...)
G---------|
D---------|
A---------|
E-1~3~5~6~|

(At the end of the longest line..)
G--------------------------------------------------------------|
D--------------------------------------------------------------|
A-3-3-3-3-3----------------------------------------------------|
E-----------3-3-3-3-3-3-3-3-5-5-5-5-5-0-0-0-0-0-0-0-0-1-1-1-1-1|

(If you need to find me...)
G------------------------------------------|
D------------------------------------------|
A-3-3-3-3-3-3-3-3-5-5-5-5-5-8-8-8-8-8-8-8-8|
E------------------------------------------|

G--------------------------------------------------------------|
D--------------------------------------------------------------|
A-3-3-3-3-3----------------------------------------------------|
E-----------3-3-3-3-3-3-3-3-5-5-5-5-5-0-0-0-0-0-0-0-0-1-1-1-1-1|

G------------------------------------------|
D------------------------------------------|
A-3-3-3-3-3-3-3-3-5-5-5-5-5-8-8-8-8-8-8-8-8|
E------------------------------------------|

(But officer...)
G----------------------------------------------------------------|
D----------------------------------------------------------------|
A-3-3-3-3-3-3-3-3------------------------------------------------|
E-----------------3-3-3-3-3-3-3-3-5-5-5-5-5-5-5-5-5-5-5-5-5-5-3-3|

(Insubordination...)
G------------------------------------------------------------|
D------------------------------------------------------------|
A-3-3-3-3-3-3-3-3--------------------------------------------|
E-----------------3-3-3-3-3-3-3-3-1-1-1-1-1-1-1-1-1-1-1-5-3--|

(I must be wrong...)
G----------------------------------------------------------------|
D----------------------------------------------------------------|
A-3-3-3-3-3-3-3-3------------------------------------------------|
E-----------------3-3-3-3-3-3-3-3-5-5-5-5-5-5-5-5-3-3-3-3-3-3-3-3|

(Much too dangerous...)
G------------------------------------------------|
D------------------------------------------------|
A------------------------------------------------|
E-1-1-1-1-1-1-1-1-1-1-1-1-1-1-1-1-3-3-3-3-3-3-3-3|

(At the end of the longest line..)
G--------------------------------------------------------------|
D--------------------------------------------------------------|
A-3-3-3-3-3----------------------------------------------------|
E-----------3-3-3-3-3-3-3-3-5-5-5-5-5-0-0-0-0-0-0-0-0-1-1-1-1-1|

(If you need to find me...)
G------------------------------------------|
D------------------------------------------|
A-3-3-3-3-3-3-3-3-5-5-5-5-5-8-8-8-8-8-8-8-8|
E------------------------------------------|

(At the end of the longest line..)
G--------------------------------------------------------------|
D--------------------------------------------------------------|
A-3-3-3-3-3----------------------------------------------------|
E-----------3-3-3-3-3-3-3-3-5-5-5-5-5-0-0-0-0-0-0-0-0-1-1-1-1-1|

(Thats where I will always be)
G------------------------------------------|
D------------------------------------------|
A-3-3-3-3-3-3-3-3-5-5-5-5-5-8-8-8-8-8-8-8-8|
E------------------------------------------|
AT THE END OF THE LONGEST LINE A-3 <---end note

            
            
Suggest correction
Creating personal tab
Creating personal tab
You can edit any tab online and save it as your Personal.

You can edit, replace or remove any tab part or add personal notes – all changes will be seen only by you.

Personal tabs can be accessed anytime from any device, even offline.
Learn more »
Give kudos to tab author, rate the tab!
1 2 3 4 5
comments
print report bad tab
guest
You may want to rate the tab now too:
select rating
Wanna post a correction for this tab? Suggest correction