Oops, an error
Loading. Please wait.

The Man I Killed bass

version 1
version 1

Whole song

Interactive

by NOFX
3,904 views 9 this week
no commentswrite comment
1 2 3 4 5
x 4
add to favorites
×
Save as Personal and add changes to this tab that will be seen only by you. Learn more ›
×
You can save this tab as Personal to edit and correct it or add notes. All changes will be seen only by you. Learn more »
launch autoscroll
font size
0
reset
guitar tuner
edit
Autoscroll
slow
fast
+/-
esc
set tempo
stop
Author
Difficulty
Standard Tuning-
e B G D A E

*= listen to the song and switch when it does.


Intro

e-----------------------------------------------------------------
B-----------------------------------------------------------------
G-----------------------------------------------------------------
D-----------5---------------------------4-----------5-------5-----
A-------5-------5---3---2-------5---2-------3---5-------5---------
E---3-----------------------3-------------------------------------

Chorus

e-----------------------------------------------------------------
B-----------------------------------------------------------------
G-----------------------------------------------------------------
D-----------------------------------------------------------------  Repeat x2
A---------------3*------------------------------------------------
E---3--2---0*--------3*---2*--------------------------------------

e-----------------------------------------------------------------
B-----------------------------------------------------------------
G-----------------------------------------------------------------
D-----------------------------------------------------------------
A---------------3*---5*-------------------------------------------
E---3--2---0*-----------------------------------------------------

Verse

e-----------------------------------------------------------------
B-----------------------------------------------------------------
G-----------------------------------------------------------------
D-----------5---------------------------4---2---------------------
A-------5-------5---3---2-------5---2-----------5---3-----5-3-2-0-
E---3-----------------------5---------------------------3---------

e-----------------------------------------------------------------
B-----------------------------------------------------------------
G-----------------------------------------------------------------
D-----------5---------------------------4---2-----------5-------5-
A-------5-------5---3---2-------5---2-----------3---5-------5-----
E---3-----------------------5-------------------------------------

Repeat Chorus x1

Repeat Intro x1



Whoo Hoo.
First Tab tell me what you think if anybody is gonna be there on
Apr 14 2008 NoFX at The Knitting Factory comment me im gonna be there.
Go NoFX and hopefully there will be more tabs on the way.
Peace out from YOYO.

            
            
Suggest correction
Creating personal tab
Creating personal tab
You can edit any tab online and save it as your Personal.

You can edit, replace or remove any tab part or add personal notes – all changes will be seen only by you.

Personal tabs can be accessed anytime from any device, even offline.
Learn more »
comments
print report bad tab
guest
You may want to rate the tab now too:
select rating
Wanna post a correction for this tab? Suggest correction