Oops, an error
Loading. Please wait.

There She Goes bass

by NOFX
330 views 1 this week
no commentswrite comment
1 2 3 4 5
3 more votes to show rating
add to favorites
×
Save as Personal and add changes to this tab that will be seen only by you. Learn more ›
×
You can save this tab as Personal to edit and correct it or add notes. All changes will be seen only by you. Learn more »
launch autoscroll
font size
0
reset
guitar tuner
edit
Autoscroll
slow
fast
+/-
esc
set tempo
stop
Author
++++++++++++++++++++++++
| NOFX- There She Goes |
++++++++++++++++++++++++


"Pulsing through my veins..."


Tuning: EADG



Intro
1.
G|-------------------------------|
D|-------------------------------|
A|---------------------------555-|
E|-------------------------------|

2.
G|-------------------------------------------------------------------------------|
D|-------------------------------------------------------------------------------|
A|--------5~---5-3~---33-555--------5~---5-3~---33-555--------5~---5-3~---33-232-|
E|-3~---3--------------------3~---3--------------------3~---3--------------------|

3.
G|-------------------------------------|
D|----------------------------------24-|
A|-0~---0--------3~---33~---3--55555---|
E|--------3~---3-----------------------|

Verse
"There she goes..."
4.
G|-------------------------------------------------------------------------------|
D|-------------------------------------------------------------------------------|
A|--------5~---5-3~---33-555--------5~---5-3~---33-555--------5~---5-3~---33-232-|
E|-3~---3--------------------3~---3--------------------3~---3--------------------|

"And I just cant contain..."
5.
G|---------------------------------------------------------------|
D|-7~---7-5~---5--------------7~---7-5~---5----------------------|
A|---------------3~---33----3---------------3~---33---3--5555555-|
E|---------------------------------------------------------------|

"There she goes..."
6.
G|-------------------------------------------------------------------------------|
D|-------------------------------------------------------------------------------|
A|--------5~---5-3~---33-555--------5~---5-3~---33-555--------5~---5-3~---33-232-|
E|-3~---3--------------------3~---3--------------------3~---3--------------------|

"And I just cant contain..."
7.
G|---------------------------------------------------------------|
D|-7~---7-5~---5--------------7~---7-5~---5----------------------|
A|---------------3~---33----3---------------3~---33---3--5555555-|
E|---------------------------------------------------------------|

Bridge
8.
G|-------------------------------------------------------------------------------|
D|-----------------------444-----------------------444---------------------------|
A|--------5~---5-3~---33------------5~---5-3~---33------------5~---5-3~---33-232-|
E|-3~---3--------------------3~---3--------------------3~---3--------------------|

9.
G|---------------------------------------------------------------|
D|-7~---7-5~---5--------------7~---7-5~---5----------------------|
A|---------------3~---33----3---------------3~---33---3--5555555-|
E|---------------------------------------------------------------|

"There she goes..."
10.
G|---------------------------------------|
D|---------------------------------------|
A|-----------3~--------/7~--------3~---3-|
E|-0~------------------------------------|

"Calls my name..."
11.
G|-------------------------------------------------|
D|-------------------------------------------------|
A|-5-5--------5-5-3~---3-5-5--------5-5-3~---3-3-5-|
E|-----3~---3----------------3~---3----------------|

"But I just cant contain..."
12.
G|---------------------------------------------------|
D|--------7~---7-------------------------------------|
A|-0~---0--------7~---77~---7-3~---33~----3--5555555-|
E|---------------------------------------------------|

"There she goes..."
13.
G|-------------------------------------------------------------------------------|
D|-------------------------------------------------------------------------------|
A|--------5~---5-3~---33-555--------5~---5-3~---33-555--------5~---5-3~---33-232-|
E|-3~---3--------------------3~---3--------------------3~---3--------------------|

"And I just cant contain..."
14.
G|---------------------------------------------------------------|
D|-7~---7-5~---5--------------7~---7-5~---5----------------------|
A|---------------3~---33----3---------------3~---33---3--5555555-|
E|---------------------------------------------------------------|

"There she goes..."
15.
G|-------------------------------------------------------------------------------|
D|-----------------------444-----------------------444-----------------------444-|
A|--------5~---5-3~---33------------5~---5-3~---33------------5~---5-3~---33-----|
E|-3~---3--------------------3~---3--------------------3~---3--------------------|

Outro
16.
G|-------------------|
D|-5~----------------|
A|-------------------|
E|-------------------|


Please rate thanks!!


Lyrics:

There she goes
There she goes again
Racing through my brain
And I just can't contain
This feeling that remains

There she goes
There she goes again
Pulsing through my veins
And I just can't contain
This feeling that remains

There she goes
There she goes again
She calls my name,
Pulls my train
No one else could heal my pain
And I just can't contain
This feeling that remains

There she goes
There she goes again
Chasing down my lane
And I just can't contain
This feeling that remains



+++++++++++++++++++++++++++++++++
| Raileff                       |
| Underground__Dora@Hotmail.Com |
+++++++++++++++++++++++++++++++++

            
            
Suggest correction
Creating personal tab
Creating personal tab
You can edit any tab online and save it as your Personal.

You can edit, replace or remove any tab part or add personal notes – all changes will be seen only by you.

Personal tabs can be accessed anytime from any device, even offline.
Learn more »
Give kudos to tab author, rate the tab!
1 2 3 4 5
comments
print report bad tab
guest
You may want to rate the tab now too:
select rating
Wanna post a correction for this tab? Suggest correction