Oops, an error
Loading. Please wait.

Usa-Holes tab

version 4
version 4

Whole song

Interactive

by NOFX
31 views 1 this week
no commentswrite comment
1 2 3 4 5
3 more votes to show rating
add to favorites
×
Save as Personal and add changes to this tab that will be seen only by you. Learn more ›
×
You can save this tab as Personal to edit and correct it or add notes. All changes will be seen only by you. Learn more »
launch autoscroll
font size
0
reset
how to read this tab
guitar tuner
edit
Autoscroll
slow
fast
+/-
esc
set tempo
stop
About this tab version
This version includes the solo (both main and second guitars). Was this info helpful? Yes No
[Intro]
(both guitars)
e|------|------|------|-----------------|-----------|------|------|-----------------|
B|------|------|------|-----------------|-----------|------|------|-----------------|
G|------|------|------|---------------7-|-9\--------|------|------|---------------7-|
D|------|------|------|-----------5-7-7-|-9\--------|------|------|-----------5-7-7-|
A|------|------|------|-----------5-7-5-|-7\--------|------|------|-----------5-7-5-|
E|------|------|------|-----------3-5---|-----------|------|------|-----------3-5---|

e|------------------|--------------------|--------------------|----------------------|
B|------------------|--------------------|--------------------|----------------------|
G|-9-9--------------|------------------7-|-9-9----------------|--------------------7-|
D|-9-9-9-10---5-7-9-|-10-9-7-5-2---5-7-7-|-9-9-9-10---5-7-5-2-|---12-14-12-9---5-7-7-|
A|-7-7-9-10---5-7-9-|-10-9-7-5-2---5-7-5-|-7-7-9-10---5-7-5-2-|---10-12-10-7---5-7-5-|
E|-----7-8----3-5-7-|-8--7-5-3-0---3-5---|-----7-8----3-5-3-0-|----------------3-5---|

e|------------------|--------------------|------------------|
B|------------------|--------------------|------------------|
G|-9-9--------------|------------------7-|-9-9--------------|
D|-9-9-9-10---5-7-9-|-10-9-7-5-2---5-7-7-|-9-9-9-10---5-7-5-|
A|-7-7-9-10---5-7-9-|-10-9-7-5-2---5-7-5-|-7-7-9-10---5-7-5-|
E|-----7-8----3-5-7-|-8--7-5-3-0---3-5---|-----7-8----3-5-3-|

[Verse]
e|---------|------|------|-----------------|-----------|------|------|-----------------|
B|---------|------|------|-----------------|-----------|------|------|-----------------|
G|-9\------|------|------|---------------7-|-9\--------|------|------|---------------7-|
D|-9\------|------|------|-----------5-7-7-|-9\--------|------|------|-----------5-7-7-|
A|-7\------|------|------|-----------5-7-5-|-7\--------|------|------|-----------5-7-5-|
E|---------|------|------|-----------3-5---|-----------|------|------|-----------3-5---|

[Chorus]
(Pt. 1 — Both guitars)
e|------------------|------------------|------------------------|--------------------|
B|------------------|------------------|------------------------|--------------------|
G|-5-5-5-5-5-5-5--7-|-7-7-7-7-7-7-7----|------------------------|--------------------|
D|-5-5-5-5-5-5-5--7-|-7-7-7-7-7-7-7--5-|-5-5-5-5-5-5-5--4-4-4-5-|-5-5-5-5-5-5--5-7-7-|
A|-3-3-3-3-3-3-3--5-|-5-5-5-5-5-5-5--5-|-5-5-5-5-5-5-5--5-5-5-5-|-5-5-5-5-5-5--5-7-7-|
E|------------------|----------------3-|-3-3-3-3-3-3-3--2-2-2-3-|-3-3-3-3-3-3--3-5-5-|

[Chorus] P
(t. 2 — Guitar 1)
e|------------------|---------------|-------------------|--------------------|
B|------------------|---------------|-------------------|--------------------|
G|-5-5-5-5-5-5-5--7-|-7-7-7-7-7-7-7-|-9-9-x--x-9-9-x--x-|-9-9-x--x-9-9-x--x--|
D|-5-5-5-5-5-5-5--7-|-7-7-7-7-7-7-7-|-9-9-x--x-9-9-x--x-|-9-9-x--x-9-9-x--x--|
A|-3-3-3-3-3-3-3--5-|-5-5-5-5-5-5-5-|-7-7-x--x-7-7-x--x-|-7-7-x--x-7-7-x--x--|
E|------------------|---------------|-------------------|--------------------|

(Guitar 2)
e|------------------|---------------|-------------------|--------------------|
B|------------------|---------------|-------------------|--------------------|
G|-5-5-5-5-5-5-5--7-|-7-7-7-7-7-7-7-|-9-----------------|--------------9-----|
D|-5-5-5-5-5-5-5--7-|-7-7-7-7-7-7-7-|-9-----------------|--------------9-----|
A|-3-3-3-3-3-3-3--5-|-5-5-5-5-5-5-5-|-7-----------------|--------------7--x\-|
E|------------------|---------------|-------------------|-----------------x\-|

[Post-Chorus]
(Both guitars)
e|---------------|---------------|---------------|--------------------|
B|---------------|---------------|---------------|--------------------|
G|---------------|-5-5--5--5-5-5-|---------------|-5-5--5--5-5------7-|
D|-5-5--5--5-5-5-|-5-5--5--5-5-5-|-7-7--7--7-7-7-|-5-5--5--5-5--5-7-7-|
A|-5-5--5--5-5-5-|-3-3--3--3-3-3-|-7-7--7--7-7-7-|-3-3--3--3-3--5-7-5-|
E|-3-3--3--3-3-3-|---------------|-5-5--5--5-5-5-|--------------3-5---|

e|-----------|------|------|--------------------|-----------|------|------|-----------------|
B|-----------|------|------|--------------------|-----------|------|------|-----------------|
G|-9\--------|------|------|-----------12-11-10-|-9---------|------|------|---------------7-|
D|-9\--------|------|------|-----------12-11-10-|-9---------|------|------|-----------5-7-7-|
A|-7\--------|------|------|-----------10-9--8--|-7---------|------|------|-----------5-7-5-|
E|-----------|------|------|--------------------|-----------|------|------|-----------3-5---|

[Chorus]
(Pt. 1 — Both guitars)
e|------------------|------------------|------------------------|--------------------|
B|------------------|------------------|------------------------|--------------------|
G|-5-5-5-5-5-5-5--7-|-7-7-7-7-7-7-7----|------------------------|--------------------|
D|-5-5-5-5-5-5-5--7-|-7-7-7-7-7-7-7--5-|-5-5-5-5-5-5-5--4-4-4-5-|-5-5-5-5-5-5--5-7-7-|
A|-3-3-3-3-3-3-3--5-|-5-5-5-5-5-5-5--5-|-5-5-5-5-5-5-5--5-5-5-5-|-5-5-5-5-5-5--5-7-7-|
E|------------------|----------------3-|-3-3-3-3-3-3-3--2-2-2-3-|-3-3-3-3-3-3--3-5-5-|

[Chorus]
(Pt. 2 — Guitar 1)
e|------------------|---------------|-------------------|--------------------|
B|------------------|---------------|-------------------|--------------------|
G|-5-5-5-5-5-5-5--7-|-7-7-7-7-7-7-7-|-9-9-x--x-9-9-x--x-|-9-9-x--x-9-9-x-----|
D|-5-5-5-5-5-5-5--7-|-7-7-7-7-7-7-7-|-9-9-x--x-9-9-x--x-|-9-9-x--x-9-9-x--x\-|
A|-3-3-3-3-3-3-3--5-|-5-5-5-5-5-5-5-|-7-7-x--x-7-7-x--x-|-7-7-x--x-7-7-x--x\-|
E|------------------|---------------|-------------------|--------------------|

(Guitar 1)
e|------------------|---------------|-------------------|--------------------|
B|------------------|---------------|-------------------|--------------------|
G|-5-5-5-5-5-5-5--7-|-7-7-7-7-7-7-7-|-------------------|--------------------|
D|-5-5-5-5-5-5-5--7-|-7-7-7-7-7-7-7-|-------------------|--------------------|
A|-3-3-3-3-3-3-3--5-|-5-5-5-5-5-5-5-|-------------------|--------------------|
E|------------------|---------------|-0--------3--------|-5--------7---------|

[Post-Chorus]
(Both guitars)
e|---------------|---------------|---------------|--------------------|
B|---------------|---------------|---------------|--------------------|
G|---------------|-5-5--5--5-5-5-|---------------|-5-5--5--5-5------7-|
D|-5-5--5--5-5-5-|-5-5--5--5-5-5-|-7-7--7--7-7-7-|-5-5--5--5-5--5-7-7-|
A|-5-5--5--5-5-5-|-3-3--3--3-3-3-|-7-7--7--7-7-7-|-3-3--3--3-3--5-7-5-|
E|-3-3--3--3-3-3-|---------------|-5-5--5--5-5-5-|--------------3-5---|

[Solo]
(Guitar 1)
e|-------12------------|-------8-----------------------|----------------------|----------------------|
B|-10b--------10r-8----|-8--10----10-8--10-8-----10----|----------------------|-10b--10---8----------|
G|---------------------|----------------------9--------|----------------------|----------------9-----|
D|---------------------|-------------------------------|-8b---8----7----5-----|----------------------|
A|---------------------|-------------------------------|----------------------|----------------------|
E|---------------------|-------------------------------|----------------------|----------------------|

e|-------------------------------------------------|----------------------|
B|-17-15-12-17-15-12-17-15-12-17-15-12-17-15-12-12-|-15b--15---13---------|
G|-------------------------------------------------|----------------14----|
D|-------------------------------------------------|----------------------|
A|-------------------------------------------------|----------------------|
E|-------------------------------------------------|----------------------|

e|-15-12----12-------12------------------------|-------------------------------|--------------|
B|-------15----15-------15-12------------------|-------------------------------|--------------|
G|----------------------------14-12-14-12------|-------------------------------|--------------|
D|----------------------------------------14---|-9----9----7----9----7----5----|--------------|
A|---------------------------------------------|-------------------------------|-7~-----------|
E|---------------------------------------------|-------------------------------|--------------|

(Guitar 2)
e|-------------------|-------------------------|-------------------------|------------------------|
B|-------------------|-------------------------|-------------------------|------------------------|
G|-------------------|-------------------------|-------------------------|------------------------|
D|-9-9-9-7-9---------|-------------------------|-------------------------|---------------12-14-12-|
A|-7-7-7-5-7---5-7-9-|-10-10-10-10-10---7-9-10-|-12-12-12-14-12---7-9-10-|-9-9-9-10-9----10-12-10-|
E|-------------3-5-7-|-8--8--8--7--8----5-7-8--|-10-10-10-12-10---5-7-8--|-7-7-7-8--7-------------| (x2)

[Post-Solo]
(Both guitars)
e|--------------------|------------------|------------------|--------------------|
B|--------------------|------------------|------------------|--------------------|
G|-9-9-9-9-9-9-9-9--5-|-5-5-5-5-5-5-5--7-|-7-7-7-7-7-7-7----|--------------------|
D|-9-9-9-9-9-9-9-9--5-|-5-5-5-5-5-5-5--7-|-7-7-7-7-7-7-7----|--------------------|
A|-7-7-7-7-7-7-7-7--3-|-3-3-3-3-3-3-3--5-|-5-5-5-5-5-5-5--5-|-5-5-5-5-5-5-5-5-5--|
E|--------------------|------------------|----------------3-|-3-3-3-3-3-2-2-3-2--| (x3)

e|--------------------|------------------|------------------|----------------------|
B|--------------------|------------------|------------------|----------------------|
G|-9-9-9-9-9-9-9-9--5-|-5-5-5-5-5-5-5--7-|-7-7-7-7-7-7-7----|--------------------7-|
D|-9-9-9-9-9-9-9-9--5-|-5-5-5-5-5-5-5--7-|-7-7-7-7-7-7-7----|----------------5-7-7-|
A|-7-7-7-7-7-7-7-7--3-|-3-3-3-3-3-3-3--5-|-5-5-5-5-5-5-5--5-|-5-5-5-5-5-5-5--5-7-5-|
E|--------------------|------------------|----------------3-|-3-3-3-3-3-2-2--3-5---|

[Outro]
(Guitar 1)
e|------------------|--------------------|------------------|------------------|
B|------------------|--------------------|------------------|------------------|
G|-9-9--------------|------------------7-|-9-9--------------|------------------|
D|-9-9-9-10---5-7-9-|-10-9-7-5-2---5-7-7-|-9-9-9-10---5-7-5-|-2----------------|
A|-7-7-9-10---5-7-9-|-10-9-7-5-2---5-7-5-|-7-7-9-10---5-7-5-|-2----------------|
E|-----7-8----3-5-7-|-8--7-5-3-0---3-5---|-----7-8----3-5-3-|-0----------------|

(Guitar 2)
e|------------------|--------------------|------------------|------------------|
B|------------------|--------------------|------------------|------------------|
G|-9-9--------------|------------------7-|-9-9--------------|------------------|
D|-9-9-9-10\--------|--------------5-7-7-|-9-9-9-10---5-7-5-|-2----------------|
A|-7-7-9-10\--------|--------------5-7-5-|-7-7-9-10---5-7-5-|-2----------------|
E|-----7-8-\--------|--------------3-5---|-----7-8----3-5-3-|-0----------------|


************************************

| \  Slide down
| x  Dead note
| r  Release
| b  Bend
| ~  Vibrato

************************************

            
            
Suggest correction
Creating personal tab
Creating personal tab
You can edit any tab online and save it as your Personal.

You can edit, replace or remove any tab part or add personal notes – all changes will be seen only by you.

Personal tabs can be accessed anytime from any device, even offline.
Learn more »
Give kudos to tab author, rate the tab!
1 2 3 4 5
comments
print report bad tab
guest
You may want to rate the tab now too:
select rating
Wanna post a correction for this tab? Suggest correction