Oops, an error
Loading. Please wait.

We Threw Gasoline On The Fire bass

by NOFX
745 views 1 this week
4 commentsread comments
1 2 3 4 5
x 4
add to favorites
×
Save as Personal and add changes to this tab that will be seen only by you. Learn more ›
×
You can save this tab as Personal to edit and correct it or add notes. All changes will be seen only by you. Learn more »
launch autoscroll
font size
0
reset
guitar tuner
edit
Autoscroll
slow
fast
+/-
esc
set tempo
stop
Song: We Threw Gasoline on the Fire and Now
      We Have Stumps For Arms and No Eyebrows
Band: NOFX
Tabbed by: James Bradley

I may have messed up a little bit, but overall
it should be pretty good.

> means strum

Intro:
G--------------------------------------
D---------0>---------------------------
A--0>----------0>----------------------
E--------------------------------------

Verse (part one):
*on second time through, play the divided
part instead of the G (E string, 3rd fret)
G-----------------|-7-7-5-4-2-0--------
D-----------------|--------------------
A--0>-------3>----|--------------------
E-----3>-1>----3>-|--------------------

Verse (part two):
*on second time through, play the divided
part instead of the C (A string, 3rd fret)
G-------------------|------------------
D-------------------|------------------
A--3>-1>-0>-------3>|------------------
E-----------1>-3>---|--1>-3>-----------

Chorus:
G--------------------------------------
D--------------------------------------
A--3>-1>----3>------3>-2>----0>--------
E--------1>---------------1>-----------

G--------------------------------------
D--------------------------------------
A--------0>------------3---------------
E--1>-3>--------1>--3>-----------------

Bridge:
G--------------------------------------
D--------------------------------------
A---3>---------------------------------
E------3>-1>----1>-3>------------------

            
            
Suggest correction
Creating personal tab
Creating personal tab
You can edit any tab online and save it as your Personal.

You can edit, replace or remove any tab part or add personal notes – all changes will be seen only by you.

Personal tabs can be accessed anytime from any device, even offline.
Learn more »
comments
print report bad tab
4 comments total. Showing first comments.
0 reply
stuporman20 30 Jan 25, 2003 07:00 PM

You forgot to mention that the last part of the chorus (the last line of the chorus) is also the outro (I don't miss my span of attention...).

0 reply
Punks Alive 40 Jan 29, 2005 07:00 PM

this tab is terrible. the intro is not opne notes, its played like this. Idiot.

--9---7----7----9----
--7---7----7----7----
---------------------
---------------------

listen for the strumming pattern. you either ripped this terrible tba or had a *** in your ear when you tabbed it.

0 reply
wollie 51 Dec 15, 2005 04:58 AM

intro???

guest
Wanna post a correction for this tab? Suggest correction