Oops, an error
Loading. Please wait.

Your Hubcaps Cost More Than My Car bass

version 1
version 1

Whole song

Interactive

by NOFX
356 views 1 this week
no commentswrite comment
1 2 3 4 5
3 more votes to show rating
add to favorites
×
Save as Personal and add changes to this tab that will be seen only by you. Learn more ›
×
You can save this tab as Personal to edit and correct it or add notes. All changes will be seen only by you. Learn more »
launch autoscroll
font size
0
reset
guitar tuner
edit
Autoscroll
slow
fast
+/-
esc
set tempo
stop
Author
Your hubcaps cost more than my car

From: 7 inch of the month

Tabbed by lolxd555

EADG

Really easy song that goes like this :

Intro1    00:14
G|-----------------|
D|--------------9--|
A|------------7--7-|
E|-7-9-9-7-7-9----7|
Intro2
G|-----------------|
D|--------------9--|
A|------------7--7-|
E|-7-9-7-7-7-9----7|

Verse X4 *=X8
G|-----------|
D|-----------|
A|-----------|
E|7*-6*-0*-7*|

Chorus X2
G|----------------------------------------------------------------------|
D|----------------------------------------------------------------------|
A|---------------------------------------------------------------7777777|
E|7-77777-6-6666666-5-55555-4-4444444--7-77777-6-666666-5-55555-4-------|

Play intro1 and intro2, Then verse X4 and chorus X2. Finish with intro1 and intro2. Let 
last note ring.

            
            
Suggest correction
Creating personal tab
Creating personal tab
You can edit any tab online and save it as your Personal.

You can edit, replace or remove any tab part or add personal notes – all changes will be seen only by you.

Personal tabs can be accessed anytime from any device, even offline.
Learn more »
Give kudos to tab author, rate the tab!
1 2 3 4 5
comments
print report bad tab
guest
You may want to rate the tab now too:
select rating
Wanna post a correction for this tab? Suggest correction