Oops, an error
Loading. Please wait.
We have an official Youre Wrong tab made by UG professional guitarists. Check out the tab »
×
by NOFX
574 views 1 this week
no commentswrite comment
1 2 3 4 5
2 more votes to show rating
add to favorites
×
Save as Personal and add changes to this tab that will be seen only by you. Learn more ›
×
You can save this tab as Personal to edit and correct it or add notes. All changes will be seen only by you. Learn more »
launch autoscroll
font size
0
reset
guitar tuner
edit
Autoscroll
slow
fast
+/-
esc
set tempo
stop
Author
Difficulty
-> This is the tab to the live version of this song, not the acoustic version.

NOFX - You're Wrong (They've Actually Gotten Worse Live!)

...
..
. 

Intro:
G|------------------|
D|------------------|
A|----------2*--3*--|
E|--0*--3*----------|


You're wrong about virtues of Christianity...
G|------------------------------------|
D|------------------------------------|
A|--0*--3*------7*--3*--5*-------/7~--|
E|----------3*--------------0~--------|


You're wrong when you imprison people turning tricks...
G|------------------------------------|
D|------------------------------------|
A|--0*--3*----------3*--5*-------/7~--|
E|----------3*--0*----------0~--------|


You're wrong for hating queers...
G|---------------------------------------|
D|----------------5-7-5------------------|
A|--3*------5*--7--------3*------5*--7~--|
E|------3*-------------------3*----------|


Oh you're wrong if you celebrate Columbus Day...
G|----------------------------------|
D|----------------------------------|
A|--0--3--------3--5-----------/7~--| > Single notes
E|--------3--0--------0~------------|


You're wrong if you support capital punishment...
G|--------------------------------------|
D|-----------------------------7-5------|
A|--0*--3*----------3*--5*--7-------7~--|
E|----------3*--0*----------------------|


You're wrong fighting Jihad...
G|---------------------------------------|
D|---------------------------------------|
A|--3*------5*-----------3*------5*--6*--|
E|------3*------0*-----------3*----------|


You're getting high on the downlow...
G|--------%-----|
D|--------%-----|
A|--3-----%--3--| % = I don't think Fat Mike plays anything
E|-----3--%-----|

.
..
...

            
            
Suggest correction
Creating personal tab
Creating personal tab
You can edit any tab online and save it as your Personal.

You can edit, replace or remove any tab part or add personal notes – all changes will be seen only by you.

Personal tabs can be accessed anytime from any device, even offline.
Learn more »
Give kudos to tab author, rate the tab!
1 2 3 4 5
comments
print report bad tab
guest
You may want to rate the tab now too:
select rating
Wanna post a correction for this tab? Suggest correction