Oops, an error
Loading. Please wait.

Train Wreck tab

version 2
version 2

Whole song

Interactive

4,953 views 1 this week
1 commentread comment
1 2 3 4 5
x 7
add to favorites
×
Save as Personal and add changes to this tab that will be seen only by you. Learn more ›
×
You can save this tab as Personal to edit and correct it or add notes. All changes will be seen only by you. Learn more »
launch autoscroll
font size
0
reset
how to read this tab
guitar tuner
edit
Autoscroll
slow
fast
+/-
esc
set tempo
stop
xXx---xXx---xXx---xXx---xXx---xXx---xXx---xXx---xXx---xXx---xXx---xXx---xXx---xXx

			                            TRAIN WRECK - Noise Pollution

xXx---xXx---xXx---xXx---xXx---xXx---xXx---xXx---xXx---xXx---xXx---xXx---xXx---xXx

-Great song by Noise Pollution, go check them out at:
http://www.myspace.com/noisepollutionpunk

-Heard at Super Crazy Guitar Maniac Deluxe 3 [SCGMDx 3], Play it here:
http://shinki.co.uk/games.php

Tabbed by: almightycrammer [Phil DT]
Email: abitterending@yahoo.com
*For inquiries, complaints/corrections, and suggestions: just gimme a message.

Tuning: Guitar 1/Rhythm = Standard [E A D G B e]
        Guitar 2/Lead   = Standard [E A D G B e]

Legend:
	 /  slide up
	 \  slide down
	 ~  Let Ring [Sustain note, but not necessarily vibrato]
	 +  Staccato [Quickly release note after strumming]
	 *  Palm Mute

Notes:
	-Pay attention to the palm muting.
	-Pay attention to the timing of the notes.
	-Pay attention to the staccato notes. [Yup, they matter!]

INTRO:

Guitar 1:
e|---------------------------------------------------------------------------|
B|---------------------------------------------------------------------------|
G|---------------------------------------------------------------------------|
D|---------------------------------------------------------------------------|
A|---------------------------------------------------------------------------|
E|---------------------------------------------------------------------------|

Guitar 2: [Clean]
e|---------------------------------------------------------------------------|2x
B|-------7----------7-----------7--------8-7---------------------------------|
G|-----7---7------7---7-------7---7----------7-------------------------------|
D|---5----------7-----------9----------7-------------------------------------|
A|---------------------------------------------------------------------------|
E|---------------------------------------------------------------------------|

[Then]

Guitar 1:[Distorted]
e|---------------------------------------------------------------------------|3x
B|---------------------------------------------------------------------------|
G|---------------------------------------------------------------------------|
D|---5-5-5-5--/--7-7-7-7--/--9-9-9-9--/--12-12--\--11-11--\\-----------------|
A|---5-5-5-5--/--7-7-7-7--/--9-9-9-9--/--12-12--\--11-11--\\-----------------|
E|---3-3-3-3--/--5-5-5-5--/--7-7-7-7--/--10-10--\--9--9---\\-----------------|

Guitar 2: [Clean]
e|---------------------------------------------------------------------------|3x
B|-------7----------7-----------7--------8-7---------------------------------|
G|-----7---7------7---7-------7---7----------7-------------------------------|
D|---5----------7-----------9----------7-------------------------------------|
A|---------------------------------------------------------------------------|
E|---------------------------------------------------------------------------|

Guitar 1:[Distorted]
e|---------------------------------------------------------------------------|
B|---------------------------------------------------------------------------|
G|---------------------------------------------------------------------------|
D|---5-5-5-5--/--7-7-7-7--/--9-9-9-9-------9+----7~--------------------------|
A|---5-5-5-5--/--7-7-7-7--/--9-9-9-9-------9+----7~--------------------------|
E|---3-3-3-3--/--5-5-5-5--/--7-7-7-7-------7+----5~--------------------------|

Guitar 2: [Clean]
e|---------------------------------------------------------------------------|
B|-------7----------7-----------7--------8+----------------------------------|
G|-----7---7------7---7-------7---7------------------------------------------|
D|---5----------7-----------9----------7-------------------------------------|
A|---------------------------------------------------------------------------|
E|---------------------------------------------------------------------------|

Verse:

Guitar 1:[Distorted]
e|---------------------------------------------------------------------------|3x
B|---------------------------------------------------------------------------|
G|---------------------------------------------------------------------------|
D|---5-5-5--55--/--7-7-7--77--/--9-9-9--99--/--7-7-7--77--\\-----------------|
A|---5-5-5--55--/--7-7-7--77--/--9-9-9--99--/--7-7-7--77--\\-----------------|
E|---3-3-3--33--/--5-5-5--55--/--7-7-7--77--/--5-5-5--55--\\-----------------|
     * * *  **     * * *  **     * * *  **     * * *  **

e|---------------------------------------------------------------------------|
B|---------------------------------------------------------------------------|
G|---------------------------------------------------------------------------|
D|---5-5-5--55--/--7-7-7--77--/--9-9-9--99------9+----7~---------------------|
A|---5-5-5--55--/--7-7-7--77--/--9-9-9--99------9+----7~---------------------|
E|---3-3-3--33--/--5-5-5--55--/--7-7-7--77------7+----5~---------------------|
     * * *  **     * * *  **     * * *  **      *   

Guitar 2: [Either silent or doing the same thing as Guitar 1]
e|---------------------------------------------------------------------------|
B|---------------------------------------------------------------------------|
G|---------------------------------------------------------------------------|
D|---------------------------------------------------------------------------|
A|---------------------------------------------------------------------------|
E|---------------------------------------------------------------------------|

Chorus:

Guitar 1: [Distorted]
e|---------------------------------------------------------------------------|4x
B|---------------------------------------------------------------------------|
G|------------7-7-7-7--------------------------------------------------------|
D|---5-5-5-5--7-7-7-7--7-7-7-7--/--9-9--\--7-7--\\---------------------------|
A|---5-5-5-5--5-5-5-5--7-7-7-7--/--9-9--\--7-7--\\---------------------------|
E|---3-3-3-3-----------5-5-5-5--/--7-7--\--5-5--\\---------------------------|

Guitar 2: [Distorted]
e|---------------------------------------------------------------------------|4x
B|---------------------------------------------------------------------------|
G|------------7-7-7-7--------------------------------------------------------|
D|---5-5-5-5--7-7-7-7--7-7-7-7--/--9-9--\--7-7--\\---------------------------|
A|---5-5-5-5--5-5-5-5--7-7-7-7--/--9-9--\--7-7--\\---------------------------|
E|---3-3-3-3-----------5-5-5-5--/--7-7--\--5-5--\\---------------------------|

[Then]

Guitar 1:[Distorted]
e|---------------------------------------------------------------------------|3x
B|---------------------------------------------------------------------------|
G|---------------------------------------------------------------------------|
D|---5-5-5-5--/--7-7-7-7--/--9-9-9-9--/--12-12--\--11-11--\\-----------------|
A|---5-5-5-5--/--7-7-7-7--/--9-9-9-9--/--12-12--\--11-11--\\-----------------|
E|---3-3-3-3--/--5-5-5-5--/--7-7-7-7--/--10-10--\--9--9---\\-----------------|

Guitar 2: [Clean]
e|---------------------------------------------------------------------------|3x
B|-------7----------7-----------7--------8-7---------------------------------|
G|-----7---7------7---7-------7---7----------7-------------------------------|
D|---5----------7-----------9----------7-------------------------------------|
A|---------------------------------------------------------------------------|
E|---------------------------------------------------------------------------|

Guitar 1:[Distorted]
e|---------------------------------------------------------------------------|
B|---------------------------------------------------------------------------|
G|---------------------------------------------------------------------------|
D|---5-5-5-5--/--7-7-7-7--/--9-9-9-9-------9+----7~--------------------------|
A|---5-5-5-5--/--7-7-7-7--/--9-9-9-9-------9+----7~--------------------------|
E|---3-3-3-3--/--5-5-5-5--/--7-7-7-7-------7+----5~--------------------------|

Guitar 2: [Clean]
e|---------------------------------------------------------------------------|
B|-------7----------7-----------7--------8+----------------------------------|
G|-----7---7------7---7-------7---7------------------------------------------|
D|---5----------7-----------9----------7-------------------------------------|
A|---------------------------------------------------------------------------|
E|---------------------------------------------------------------------------|

[Repeat Verse]

[Repeat Chorus]

SOLO:

Guitar 1: [Distorted]
e|----------|----------|----------|------------------------------------------|2x
B|----------|----------|----------|------------------------------------------|
G|----------|---7-7+---|----------|------------------------------------------|
D|---5-5+---|---7-7+---|---7-7+---|---9-9-9--\--7-7--\\----------------------|
A|---5-5+---|---5-5+---|---7-7+---|---9-9-9--\--7-7--\\----------------------|
E|---3-3+---|----------|---5-5+---|---7-7-7--\--5-5--\\----------------------|

e|---------------------------------------------------------------------------|4x
B|---------------------------------------------------------------------------|
G|------------7-7-7-7--------------------------------------------------------|
D|---5-5-5-5--7-7-7-7--7-7-7-7--/--9-9--\--7-7--\\---------------------------|
A|---5-5-5-5--5-5-5-5--7-7-7-7--/--9-9--\--7-7--\\---------------------------|
E|---3-3-3-3-----------5-5-5-5--/--7-7--\--5-5--\\---------------------------|

[Then Guitar 1 would silence]

e|---------------------------------------------------------------------------|
B|---------------------------------------------------------------------------|
G|---------------------------------------------------------------------------|
D|---------------------------------------------------------------------------|
A|---------------------------------------------------------------------------|
E|----------------------~P-I-C-K-S-L-I-D-E-!!!-~-----------------------------|

Guitar 2: [Sorry, haven't tabbed that yet :P]
e|---------------------------------------------------------------------------|
B|---------------------------------------------------------------------------|
G|---------------------------------------------------------------------------|
D|---------------------------------------------------------------------------|
A|---------------------------------------------------------------------------|
E|---------------------------------------------~-----------------------------|

[Repeat chorus until fade]

===============================================================================

LYRICS:

You called me up
Just to bring me down
Asking me if I remember you
If time has healed the wounds

Chorus:
So here I am
Dysfunctional
Just trying to find
My own way home
And there you go
Emotional
Carrying on
With nowhere to go

Those days where we cared for each other
When inside I know
You dragged me underwater
And told me you'd never let go

[Chorus]

[Solo]

[Chorus]

When I was with you
Wrapped your hands
Around my neck
Didn't seem to know what to do
Because I am
Just another train wreck

===============================================================================

            
            
Suggest correction
Creating personal tab
Creating personal tab
You can edit any tab online and save it as your Personal.

You can edit, replace or remove any tab part or add personal notes – all changes will be seen only by you.

Personal tabs can be accessed anytime from any device, even offline.
Learn more »
comments
print report bad tab
1 comment total.
+1 reply
ultimatelefty 1,762 Feb 14, 2009 02:31 PM

Great Tab. I'd have to say 4*. The solo isn't just power chords so can you please tab the solo?

guest
You may want to rate the tab now too:
select rating
Wanna post a correction for this tab? Suggest correction