Oops, an error
Loading. Please wait.

Una Storia Da Raccontare chords

by Nomadi
25 views 1 this week
no commentswrite comment
1 2 3 4 5
3 more votes to show rating
add to favorites
×
Save as Personal and add changes to this tab that will be seen only by you. Learn more ›
×
You can save this tab as Personal to edit and correct it or add notes. All changes will be seen only by you. Learn more »
launch autoscroll
font size
0
reset
transpose
0
reset
display chords
guitar tuner
edit
Autoscroll
slow
fast
+/-
esc
set tempo
stop
Strumming
There is no strumming pattern for this song yet. and get +5 IQ
[Intro] 
           G      C  C  G      C  C  C  G   D  D  G
e|---------------------------------------------------|
B|--------12-----13-13-12-----13-13-13-12--15-15-12--|
G|--------12-----12-12-12-----12-12-12-12--14-14-12--| (x2)
D|--------12-----10-10-12-----10-10-10-12--12-12-12--|
A|---------------------------------------------------|
E|---------------------------------------------------|

[Verse]
G
II  vento  passava  le  sbarre,
C             G
fischiettando canzoni tristi,
C          G
e porta ricordi di vita,
D
come nastri e colori già visti,
    G
la casa, gli amori, gli amici,
           C           G
l'ultimo libro sul comodino,
      C                 G
il ricordo dei giorni felici,
D                      G
il mare, il cielo, i colori, il vino

[Instrumental] 
           G      C  C  G      C  C  C  G   D  D  G
e|---------------------------------------------------|
B|--------12-----13-13-12-----13-13-13-12--15-15-12--|
G|--------12-----12-12-12-----12-12-12-12--14-14-12--| (x2)
D|--------12-----10-10-12-----10-10-10-12--12-12-12--|
A|---------------------------------------------------|
E|---------------------------------------------------|

[Verse]
G
e c'è un'altra storia da dire,
     C         G
una favola da raccontare,
     C                 G
un amore che non può finire,
      D
una pagina da inventare,
           G
e c'è un'altra storia da dire,
      C                 G
un aquilone che non sa volare,
              C              G
un uomo che presto andrà a morire,
     D          G
una pagina da colorare

[Instrumental] 
           G      C  C  G      C  C  C  G   D  D  G
e|---------------------------------------------------|
B|--------12-----13-13-12-----13-13-13-12--15-15-12--|
G|--------12-----12-12-12-----12-12-12-12--14-14-12--|  (x4)
D|--------12-----10-10-12-----10-10-10-12--12-12-12--|
A|---------------------------------------------------|
E|---------------------------------------------------|

[Verse]
        G
ed il sole passava le sbarre,
          C               G
caldo d'amore ma un po' affannato,
      C                G
riscaldando I'ultimo giorno,
            D
quello piu lungo di un condannato,
      G
e la luce inventava l'ombra,
     C                G
e suggeriva il suo desiderio,
    C             G
diventare domani luce,
              D            G
svanire nel nulla e nel mistero,

[Instrumental] 
A  D D A   D D D A    E E A (x2)

[Verse]
A
e c'è un'altra storia da dire,
D         A
una favola da raccontare,
D         A
un amore che non può finire,
D       E
una pagina da inventare,
           A
e c'è un'altra storia da dire,
      D                 A
un aquilone che non sa volare,
               D             A
un uomo che presto andrà a morire,
E       A
una pagina da colorare,

[Instrumental] 
A  D D A   D D D A   E E A (x2)

[Verse]
   A
e domani sarà un altro giorno,
            D              A
con uno di meno su questo mondo,
        D             A
ed una sedia che scaricherà,
           E
rabbia e violenza in un solo secondo,
    A
e domani sarà morte amara,
     D           A
un omicidio legalizzato,
         D                A
un'ingiustizia chiamata legge,
E            A
un boia di nero mascherato

[Outro]
A   D D A   D D D A   E E A (x4)

            
            
Suggest correction
Creating personal tab
Creating personal tab
You can edit any tab online and save it as your Personal.

You can edit, replace or remove any tab part or add personal notes – all changes will be seen only by you.

Personal tabs can be accessed anytime from any device, even offline.
Learn more »
Give kudos to tab author, rate the tab!
1 2 3 4 5
comments
print report bad tab
guest
You may want to rate the tab now too:
select rating
Wanna post a correction for this tab? Suggest correction