Oops, an error
Loading. Please wait.

El Imperio Del Mal chords

291 views 6 this week
no commentswrite comment
1 2 3 4 5
3 more votes to show rating
add to favorites
×
Save as Personal and add changes to this tab that will be seen only by you. Learn more ›
×
You can save this tab as Personal to edit and correct it or add notes. All changes will be seen only by you. Learn more »
launch autoscroll
font size
0
reset
transpose
0
reset
display chords
guitar tuner
edit
Autoscroll
slow
fast
+/-
esc
set tempo
stop
Strumming
There is no strumming pattern for this song yet. and get +5 IQ
Intro:

E--------------
B-13/15-13/15?
G--------------
   D   C/RE

   D              C/RE            E-F-C-A   E-F-MI
A.-Hace ya tiempo q vengo buscando la salvación irresistente
   D             C/RE             E-F           E-F-MI
B.-Hace ya tiempo q vengo buscando una explicación inútilmente
   RE?
A.-He procurado?
B.-Y siempre he sido?
C                                                   C/RE
Por k no bajas tu del cielo y me explicas k ostia pasa
D C/RE                   C-A#
Por k sigo siendo un cabrón
A#                                                 LA#/DO
Por k por muxo k lo intento no encuentro mi salvación
LA#/DO               F-E-D
Y vivo en una tentación
D                                                D/DO
Pork no escuxas mis plegarias si soy siervo y voy a misa
LA#/DO
Pork no t importa mi alma
A#                          A#-LA/LA#-C
Voy a abandonar tu templo para irme a la guerrilla
C                     F-E-D
Con nuestro señor lucifer
D           C/RE                      C
Reinare en el imperio del mal y la locura
C       LA#/DO
Imperio de la N.S.A
A#                               LA/LA#-C
Haré paperas con las hojas de la santa escritura
C                F-E-D
K tanto me hizo sufrir
D           C/RE    C                   DO?
Los k reinan arriba, sufrirán aka abajo    el castigo
A#                             A                LA#      C
Por la gracia divina de nuestro señor el señor de las tinieblas
Coro:
D                         C        DO?
Vives sin pensar k debes obedecer   a un farsante
A#          C  F-E-D
No perteneces?
D                     C                  DO?
Piensa k es posible revertir un destino   libremente
A#      C     F-E-D
Nacidos para hacer el mal

Punteo 1º guitarra


E------------------------------------------------------------
B------------------------------------------------------------
G-10-7----7-7-7-10-7---7-7-7-9---------------9---------------
D------10------------10--------10-8-10-10-10---10-8-10-10-10-


E-------------------------------------
B-------------------------------------
G-?10?-9-7-?9?-10-9-?7?-9-7---------9-
D---------------------------10-7-10---

E------------------------------------------------------------
B------------------------------------------------------------
G-10-7----7-7-7-10-7---7-7-7-9---------------9---------------
D------10------------10--------10-8-10-10-10---10-8-10-10-10-

E---------------------------
B---------------------------
G-?10?-9-10-?12?-10-12-?14?-
D---------------------------

E-10----10-8---8-6--------------
B----10------8-----8-10-11-10---
G-----------------------------7-
D-------------------------------

E-10----10-12----12-13-12-10-12-10-8-10-
B----10-------13------------------------
G---------------------------------------
D---------------------------------------

OTRA GUITARRA:

       D               C               A#              C
G---------------|G---------------|G---------------|G---------------
D-------5-------|D-------5-------|D-------5-------|D-------5-7-8-7-
A-5-7-8---8-7-5-|A-5-7-8---8-7-5-|A-5-7-8---7-8-5-|A-5-7-8---------
E---------------|E---------------|E---------------|E---------------
       PM               PM               PM               PM

D PM            C PM
Lo k pensamos  hoy ya de ti
A#           C        F-E-D
Es k eres un vulgar pecador el mayor defensor de los burgueses
D PM
Necesitamos?

CORO:
Vives sin penasar?

Punteo final:
Primera guitarra:

E------------------------------------------------------------
B------------------------------------------------------------
G-10-7----7-7-7-10-7---7-7-7-9---------------9---------------
D------10------------10--------10-8-10-10-10---10-8-10-10-10-

E-------------------------------------
B-------------------------------------
G-?10?-9-7-?9?-10-9-?7?-9-7---------9-
D---------------------------10-7-10---

E------------------------------------------------------------
B------------------------------------------------------------
G-10-7----7-7-7-10-7---7-7-7-9---------------9---------------
D------10------------10--------10-8-10-10-10---10-8-10-10-10-

E---------------------------
B---------------------------
G-?10?-9-10-?12?-10-12-?14?-
D---------------------------

E-10----10-8---8-6--------------
B----10------8-----8-10-11-10---
G-----------------------------7-
D-------------------------------

E-10----10-12----12-13-12-10-12-10-8-10-
B----10-------13------------------------
G---------------------------------------
D---------------------------------------

Mientras la otra va haciendo esto al mismo tiempo:

E---------------------------------------------------------------
B-?13?/15-15-?13?-13/15-?15?-13-13-8-13/15-15-17-18-20-20-18-20-
G---------------------------------------------------------------
D---------------------------------------------------------------

E-17-15-15-13---------------------------------------
B-------------15-18-15-13-15-13-10-13-10-13-13/?15?-
G---------------------------------------------------
D---------------------------------------------------

E-----------------------------14---------12------10---
B-8-?10?-?10-13??-13/15-15-13----13-?10?----10-8----8-
G-----------------------------------------------------
D-----------------------------------------------------

E-10-12-13-15-15-13-12-13-12-10-12-10----------
B-------------------------------------13-15-13-
G----------------------------------------------
D----------------------------------------------

E-----------------------------------
B-13-11-10-11-10-8-10-8----8--------
G-----------------------10---10-9-7-
D-----------------------------------

D PM final?

bueno aki esta el tema q todos esperaban
valio la pena la espera jajaja
el tema igual es complicao pero esta es la manera mas facil
de tokarla igual suena bien

salud y libertad
oi!oi!oi!

pernobukes no muere!
antipatriotas
titipunkuleXpirulo21
antifahooligan

            
            
Suggest correction
Creating personal tab
Creating personal tab
You can edit any tab online and save it as your Personal.

You can edit, replace or remove any tab part or add personal notes – all changes will be seen only by you.

Personal tabs can be accessed anytime from any device, even offline.
Learn more »
Give kudos to tab author, rate the tab!
1 2 3 4 5
comments
print report bad tab
guest
Wanna post a correction for this tab? Suggest correction