Oops, an error
Loading. Please wait.

Orgullo Obrero tab

98 views 1 this week
no commentswrite comment
1 2 3 4 5
3 more votes to show rating
add to favorites
×
Save as Personal and add changes to this tab that will be seen only by you. Learn more ›
×
You can save this tab as Personal to edit and correct it or add notes. All changes will be seen only by you. Learn more »
launch autoscroll
font size
0
reset
how to read this tab
guitar tuner
edit
Autoscroll
slow
fast
+/-
esc
set tempo
stop
bueno aunque ya esta la cancion quise mandar la version mas completa...

D A#  C  A  D C#

Oi , Oi

D              A#
SON LAS SEIS DE LA MAÑANA
  C              A      D  C#
Y ESCUCHAS EL DESPERTADOR
D      A#
ODIO Y REPUGNANCIA
     C                   A  D  C#
SE RESPIRA EN TU INTERIOR
D             A#
HAY DOS CRIOS EN LA CAMA
 C                  A D C#
Y NO TIENES ELECCIÓN
D             A#
TIENES QUE SEGUIR LUCHANDO
C            A     D C#
CON ORGULLO Y CON VALOR!!

D A#  C  A  D C#

D       A#
ELLOS DICEN QUE ERES RARO
C            D     C#
POR TU FORMA DE PENSAR
POR TU CABEZA RAPADA
Y TU MANERA DE HABLAR
Y TU SIGUES CON LOS TUYOS
CON TU FORMA DE VIVIR
FIEL AL LÍQUIDO DORADO
QUE CORRE DENTRO DE TI
DEJASTE LOS ESTUDIOS
TE PUSISTES A CURRAR
NO TE IMPORTA LO QUE DIGAN
ERES ANTI-SOCIAL!!.

D A# C A D C#
    D                A#                    C                 A       D C#
E||-----------------------------------------------------------------------|
B||---------6--5-------------------------6----------8--6--5---------------|
G||--5/7~~--------7------------------7------5-~~--------------------7--6--|
D||------------------8~~---------8----------------------------7-----------|
A||-----------------------------------------------------------------------|
E||-----------------------------------------------------------------------|


    D                A#                    C                 A       D C#
E||-----------------------------------------------------------------------|
B||---------6--5-------------------------6----------8--6--5---------------|
G||--5/7~~--------7------------------7------5-~~--------------------7--6--|
D||------------------8~~---------8----------------------------7-----------|
A||-----------------------------------------------------------------------|
E||-----------------------------------------------------------------------|


    D                A#                    C                 A       D C#
E||-----------------------------------------------------------------------|
B||---------6--5-------------------------6----------8--6--5---------------|
G||--5/7~~--------7------------------7------5-~~--------------------7--6--|
D||------------------8~~---------8----------------------------7-----------|
A||-----------------------------------------------------------------------|
E||-----------------------------------------------------------------------|


D                       A#
AUMENTA TU ODIO HACIA ESE PATRÓN
   C                       A           D C#
QUE TANTO TE OPRIME Y TE JODE EL CABRÓN
D                A#
AHORA Y SIEMPRE DEBEMOS ALZAR
  C                    A             D C#
EL ORGULLO OBRERO CONTRA EL CAPITAL
D
UNION UNION
 A#
Y TU AUTOGESTION
       C              A       D C#
SERA SU DERROTA, TU REVOLUCION.
D
BURGUESES, FASCISTAS
A#
NO VAYS A OLVIDAR
C
ORGULLO, VIOLENCIA
   A       D C#
VICTORIA FINAL


D       A#
ORGULLO VIOLENCIA
C        A     D C#
VICTORIA FINAL...  x3


CUALQUIE DETALLE

KABEZON_VAGO@

.......................
  ..................

            
            
Suggest correction
Creating personal tab
Creating personal tab
You can edit any tab online and save it as your Personal.

You can edit, replace or remove any tab part or add personal notes – all changes will be seen only by you.

Personal tabs can be accessed anytime from any device, even offline.
Learn more »
Give kudos to tab author, rate the tab!
1 2 3 4 5
comments
print report bad tab
guest
Wanna post a correction for this tab? Suggest correction