Oops, an error
Loading. Please wait.

Punk Y Skin tab

version 1
version 1

Whole song

230 views 1 this week
no commentswrite comment
1 2 3 4 5
3 more votes to show rating
add to favorites
×
Save as Personal and add changes to this tab that will be seen only by you. Learn more ›
×
You can save this tab as Personal to edit and correct it or add notes. All changes will be seen only by you. Learn more »
launch autoscroll
font size
0
reset
how to read this tab
guitar tuner
edit
Autoscroll
slow
fast
+/-
esc
set tempo
stop
Hola, voy a intentar mandar un tab definitivo para esta cancion
ya ke hay unos cuantos ke estan pai bailando y les faltan trozos.
Ahi va:

->Las comas encima de las notas indican donde va el ritmo
  para luego poder encajarlo en la estrofa. Durante la estrofa
  suena lo mismo ke siempre, espero ke asi facilite la cosa<-

****************************************************************
        ,     ,     ,     ,       ,     ,     ,     ,
     G|-------------------------|-------------------------|
     D|-------------------------|-------------------------|
Bajo A|-5--5555--5555--5558-7-8-|-5--5555--555------------| (x4)
     E|-------------------------|-------------6--66688665-|


****************************************************************

        ,     ,     ,     ,       ,     ,     ,     ,
     G|-------------------------|-------------------------|
     D|-------------------------|-------------------------|
Bajo A|-5--5555--5555--5558-7-8-|-5--5555--555------------| (x2)
     E|-------------------------|-------------6--66688665-|
        ,     ,     ,     ,       ,     ,     ,     ,
     e|-------------------------|-------------------------|
     B|-------------------------|-------------------------|
     G|-7-----7-----7-----109-10|-7-----7-----------------|
Gtr1 D|-7-----7-----7-----109-10|-7-----7-----8-----108-7-|
     A|-5-----5-----5-----8-7-8-|-5-----5-----8-----108-7-| (x2)
     E|-------------------------|-------------6-----8-6-5-|


****************************************************************
,          ,         ,     ,
A los ke piensan ke somos lacra so-
   ,         ,         ,       ,
cial un excremento de la socie-
 ,           ,         ,
dad demostraremos su ekivoca
  ,      ,       ,    ,
cion    pagaran cara su acusa
 ,           ,           ,           ,
cion
 ,           ,           ,           ,

 ,      ,         ,    ,
Para vosotros empieza la cuenta a-
  ,       ,          ,         ,
tras     vuestros insultos os vais a tra
 ,        ,         ,     ,
gar      no aguantaremos ni un minuto
 ,        ,        ,      ,
mas   empieza la guerra   antiso-
  ,          ,            ,           ,
cial lololo  Lo lololo    Lo lololo   Lo lololo
 ,           ,            ,           ,
Lo lololo    Lo lololo    Lo lololo   Lo lololo


*************************************************************************
        ,

   `psch!´      ,       ,       ,         ,       ,       ,       ,
 e|---|---------------------------------|-------------------------------|
 B|---|---------------------------------|-----------------------------1-|
 G|---|---------------------------------|---------------0-2-222---222---|
 D|---|-0-000-2-3-2-3-0-----------------|-0-000-2-3-2-3---------3-------|
 A|-0-|-----------------3-333-0-3-333-0-|-------------------------------|
 E|---|---------------------------------|-------------------------------|

    ,       ,       ,       ,         ,       ,       ,     ,         ,
 e|---------------------------------|-------------------------------|---|
 B|-3-333-3-------------------------|-------------------------------|---|
 G|---------2-222-2-----------------|-------------------------------|---|
 D|-----------------3-333-2-0-0-----|---------3~----------222-0-0---|-0-|
 A|-------------------------------0-|-1-1-1-1---------------------3-|---|
 E|---------------------------------|-------------------------------|---|


*************************************************************************


        ,     ,     ,     ,       ,     ,     ,     ,
     G|-------------------------|-------------------------|
     D|·------------------------|-------------------------|
Bajo A|·5---555---555---555--3--|-5---555---555---555--7--|
     E|-------------------------|-------------------------|
        ,     ,     ,     ,       ,     ,     ,     ,
     e|-------------------------|-------------------------|
     B|-------------------------|-------------------------|
     G|·7-----7-----7-----7--5--|-7-----7-----7-----7--9--|
Gtr1 D|·7-----7-----7-----7--5--|-7-----7-----7-----7--7--|
     A|-5-----5-----5-----5--3--|-5-----5-----5-----5--7--|
     E|-------------------------|-------------------------|


        ,     ,     ,     ,       ,     ,     ,     ,
     G|-------------------------|-------------------------|
     D|-------------------------|------------------------·|
Bajo A|-8---888---888---888--7--|------------------------·|
     E|-------------------------|-5---555-5---8---888-8---|

      ,     ,     ,     ,       ,     ,     ,     ,
     e|-------------------------|-------------------------|
     B|-------------------------|-------------------------|
     G|-10----10----10----10-9--|------------------------·|
Gtr1 D|-10----10----10----10-9--|-7-----7-----10----10---·|Todo este trozo
     A|-8-----8-----8-----8--7--|-7-----7-----10----10----|   se repite
     E|-------------------------|-5-----5-----8-----8-----|   dos veces


En esta parte la guitarra 2 hace las mismas notas pero en palm muted
y con el mismo ritmo del  ritmillo tan wapo ke keda supongo
ke se lo dara el doble bombo de la batera.


**************************************************************************


Aki el bajo no se si exactamente eso, me lo he inventao un pokillo
pero creo ke esta bien,la cosa esta en darle el ritmo

        ,     ,     ,     ,       ,     ,     ,     ,
     G|-------------------------|-------------------------|
     D|-------------------------|-------------5-5-5-5-----|
Bajo A|-55---555---555---555--7-|-88---888---8--------8-7-|
     E|-------------------------|-------------------------|
        ,     ,     ,     ,       ,     ,     ,     ,
     e|-------------------------|-------------------------|
     B|-------------------------|-------------------------|
     G|-7-----7-----7-----7--9--|-10----10----10----10-9--|
Gtr1 D|-7-----7-----7-----7--9--|-10----10----10----10-7--|
     A|-5-----5-----5-----5--7--|-8-----8-----8-----8--7--|
     E|-------------------------|-------------------------|


        ,     ,     ,     ,       ,     ,     ,     ,
     G|-------------------------|-------------------------|
     D|-------------------------|-------------------------|
Bajo A|-------------77---788-10-|-------------------88-7--|
     E|-88---888---8------------|-55---555---588---8------|
        ,     ,     ,     ,       ,     ,     ,     ,
     e|-------------------------|-------------------------|
     B|-------------------------|-------------------------|
     G|-------------------------|-------------------------|
Gtr1 D|-10----10----10----10-8--|-7-----7-----10----10----|
     A|-10----10----10----10-8--|-7-----7-----10----10----|
     E|-8-----8-----8-----8--6--|-5-----5-----8-----8-----|


Luego sigue lo mismo en la segunda estrofa, kiza el bajo varie algo,
pero vamos eso ya a vuestro gusto,
mientras este dentro de la escala kedara bien.
No voy a poner la segunda estrofa porke toy ya cansao de tanto escribir.
Ademas no se le entiende y no tengo la letra.


**************************************************************************

Vale ahora lo mismo de antes solo ke algo mas lento, lo hace una vez sola.
Ahi podreis pillarle el ritmo al bajo. Luego el estribillo, mas d lo mismo


[ Sois unos ignorantes, no nos vais a hacer cambiar,        ]
[ seguiremos en las mismas, unidos hasta el final           ]
[ Punks y Skins en las calles, ya sabeis lo ke os espera,   ]
[ dos culturas agresivas golpeando tu sistemaa              ]


Y vuelve otra vez rapido mas de lo mismo,
y luego otra estrofa, pero a golpes.
 ahi el bajo hace lo mismo ke la guitarra


[ Escucha bastardo si nos kieres destruir,               ]
[ tendras ke tener cuidado, si vivo kieres salir         ]
[ Seguiremos en la lucha, aunke no nos keden balas,      ]
[ con la cabeza rapada, con la cresta levantada          ]


**************************************************************************


Weno no he puesto el final porke es = y me aburre copiar y pegar
encima ma tocao cambiar la cancion porke ahora solo pueden tener 75 letras
cada linea...  Creo ke si kitaran lo de las 75 letras y lo de
la sesion ke expira y te manda el trabajo de una hora por el vater
habria el doble de tabs en esta pagina

Weno, alguna duda o algo a pablopo_jim@

Saluz!!!

            
            
Suggest correction
Creating personal tab
Creating personal tab
You can edit any tab online and save it as your Personal.

You can edit, replace or remove any tab part or add personal notes – all changes will be seen only by you.

Personal tabs can be accessed anytime from any device, even offline.
Learn more »
Give kudos to tab author, rate the tab!
1 2 3 4 5
comments
print report bad tab
guest
Wanna post a correction for this tab? Suggest correction